Oops, an error
Loading. Please wait.

People And Their Lives Bass Tab

version 1
version 1

Whole song

Interactive

604 views 1 this week
no commentswrite comment
1 2 3 4 5
excellent!
x 3
add to favorites
launch autoscroll
font size
0
reset
guitar tuner
Tab Pro tools
  • play this tab
  • loop segment
  • change instrument
  • show fretboard
  • metronome
Autoscroll
slow
fast
+/-
esc
set tempo
stop
Contributor
-------------------------------------------------------------------------------
		 People And Their Lives- The Fall Of Troy
-------------------------------------------------------------------------------

 Tabbed by:dvanwyk
 Email:dustinvanwyk@yahoo.com

 Tuning: Standard

 Verse (0.18 - 0.30)
G|----------------------------------|
D|----------------------------------|
A|5h7-777-5h7-777-5h7-777-5h7-777---|
E|----------------------------------|

 Chorus x2
G|--------------------------------------------------------|
D|--------------555555-444444-----------------------------|
A|777777-555555---------------333333333333-222222222222---|
E|--------------------------------------------------------|

 x2
G|-------------------------------------------------------------------|
D|--------------555555-444444-101010101010101010101010-999999999999--|
A|777777-555555------------------------------------------------------|
E|-------------------------------------------------------------------|

 Post Chorus x2
G|-------------------------------4-5-4--------------|
D|--4-5-4---4-5-4-------4-5-4--1--------------------|
A|--------------------3----------------3-2----------|
E|0-------0-------2-3----------------------3-2------|

G|-------------------------------4-5-4-----|
D|--4-5-4---4-5-4-------4-5-4--1-----------|
A|--------------------3--------------------|
E|0-------0-------2-3----------------------|

 Pause

 Chorus

 Post Chorus x2

 Pause

 x2
G|----------------------------------------|
D|----------------------------------------|
A|777-5h7-77--777-5h-77-777777777777------|
E|----------------------------------------|

 Chorus

 x2
G|---------------------------------------------------------------------------999-|
D|----4-5-7-5-4------------------------------------------------------------------|
A|--------------5-7-7-(Pause)-------------10-----(Pause)-------------10-7-7------|
E|7-7-------------------------0-8-7--0-10----12----------0-8-7--0-10-------------|

G|---------------|
D|---------------|
A|---------------|
E|0~-------------|

  x8 (3.36) 
G|------------------|
D|--5h7p5----5-7----|
A|7-------77--------|
E|------------------|

 Pause

 x2
G|---------------------------|
D|--------------------9~-----|
A|7~----10~------------------|
E|-------------10~-----------|

G|-------------------------------------------------------------------------------------|
D|-------9-7-9-------------------------------------99999999----------------------------|
A|777777-------101010101010101010---------------------------77777777-1010101010101010--|
E|--------------------------------1010101010101010-------------------------------------|

 Pause

 (4.52)
G|-----------------------------------|
D|-----------------------------------|
A|3333----3333----3333----3333-------|
E|-----------------------------------|

 x2
G|------------------------------------------------------|
D|---------------------------2---------2------2----0-2--|
A|3333--3-33-------------2-3---3---2-3---3--------------|
E|-----------3--3--0~--3--------------------3--3-0------|

 x4
G|-----------------------------|
D|---2-------2--------5~---4~--|
A|3---3--2-3---3---------------|
E|---------------2-3-----------|
 
 x4
G|------------------------------------------------------|
D|---------------------------2---------2------2----0-2--|
A|3333--3-33-------------2-3---3---2-3---3--------------|
E|-----------3--3--0~--3--------------------3--3-0------|

 Pause
comments
We did not receive enough feedback on this tab! Please rate:
print report bad tab
1 2 3 4 5
I want to post or [tab]
guest
You may want to rate the tab now too:
select rating
Please do not post tabs as comments. Select "correction" instead!