Oops, an error
Loading. Please wait.

People And Their Lives Tab

version 1
version 1

Whole song

Interactive

3,527 views 1 this week
3 commentsread comments
1 2 3 4 5
1 last vote to show rating
add to favorites
launch autoscroll
font size
0
reset
how to read this tab
guitar tuner
Autoscroll
slow
fast
+/-
esc
set tempo
stop
Help us to improve Ultimate-Guitar.com Take our survey!
×
Author
-------------------------------------------------------------------------------
                  People And Their Lives - The Fall Of Troy
-------------------------------------------------------------------------------

 Guitar 1

 Verse (0.0 - 0.30)
e|--------------------------------------------|
B|--------------------------------------------|
G|---------------------------0---------0------|
D|555-777-9-9-9--121212-1010---10-9-9----9----|
A|777-999-101010-141414-1212------1010--------|
E|000-000-0-0-0--0-0-0--0-0-------0-0---------|

 chorus
e|----------------------------------------------------------------|
B|------------------12121212-15151515-1313131313131313-12121212---|
G|12121212-14141414-x-x-x-x--x-x-x-x--x-x-x-x-x-x-x-x--x-x-x-x----|
D|x-x-x-x--x-x-x-x--9-9-9-9--12121212-1010101010101010-9-9-9-9----|
A|10101010-12121212-----------------------------------------------|
E|----------------------------------------------------------------|

e|----------------------------------------------------------------|
B|------------------12121212-15151515-171717-151515-171717-151515-|
G|12121212-14141414-x-x-x-x--x-x-x-x--x-x-x--x-x-x--x-x-x--x-x-x--|
D|x-x-x-x--x-x-x-x--9-9-9-9--12121212-141414-121212-141414-121212-|
A|10101010-12121212-----------------------------------------------|
E|----------------------------------------------------------------|

 x2
e|------------------------------------------------15p0------15p0------17p0-14p0-14-|
B|------------------------12---12------------15p0------15p0------15p0--------------|
G|12----12----14----14----x----x----11---11----------------------------------------|
D|x-----x-----x-----x-----9----9----x----x-----------------------------------------|
A|10----10----12----12--------------9----9-----------------------------------------|
E|---00----00----00----00---00---00---00-------------------------------------------|
     ..    ..    ..    ..   ..   ..   ..
e|----------------------------------------------------15p0------15p0------17p0-14p0-14-|
B|--------------------------12---12--------------15p0------15p0------15p0--------------|
G|12----12----14----14------x----x------11---11----------------------------------------|
D|x-----x-----x-----x-------9----9------x----x-----------------------------------------|
A|10----10----12----12------------------9----9-----------------------------------------|
E|---00----00----00----0000---00---0000---00-------------------------------------------|
     ..    ..    ..    ....   ..   ....   .. 


 Post Chorus x2
e|----------------------------------------------------------|
B|----------------------------------------------------------|
G|----------------------------------------------------------|
D|----------------------------------------------------------|
A|2-2--4-5-10---13--3-2-------2-2--4-5-10---13--------------|
E|0-0--2-3-8----11------3-2---0-0--2-3-8----11--7h8p7p0-----|

 x2
e|-------------------------------------------------------|
B|-------------------------------------------------------|
G|--------------------------------0p4p0----------0p4p0---|
D|--2-2h5p2-2b---2-2h5p2-2b-0h2h5-------2--0h2h5---------|
A|-------------------------------------------------------|
E|0------------0-----------------------------------------|
  .            .

 Chorus
 Post Chrous
 Verse
 Chorus

 x2
e|-----------------------------------------------------------|
B|12b12b12b--------------------------------------------------|
G|15b15b15b-11h12-14-12-11-----9-9-9b-------12-9/7-----------|
D|-------------------------12--131313b-------------7-7/9-----|
A|-------------------------------------9-10--------------10--|
E|-----------------------------------------------------------|

e|---------------------------------------------------------12121212--|
B|---------------------------------------------------------x-x-x-x---|
G|---------------------------------------------------1212--9-9-9-9---|
D|-------------------------------[2]-----------------1212------------|
A|------------10-----------0h2h5------------------10-x-x-------------|
E|0-8-7--0-10----12--0h3h5------------0-8-7--0-10----1212------------|


e|---------|
B|---------|
G|---------|
D|2~-------|
A|2~-------|
E|0~-------|

 *Ok, This is where it gets weird cause I think thomas tunes down to Drop D
 for the next part. 
 3.22 - 3.50, this is where you have to tune down for the next part.

 Chorus x2
e|-----------------------------------------------------------------------|
B|-----------------------------------------------------------------------|
G|-----------------------------------------------------------------------|
D|-----------------------------------------------------------------------|
A|5--------------0--5-------0-5h7h9---5--------------0--5----------------|
D|--7-2-4--0h2h4------7-2-4-------------7-2-4--0h2h4------7-2-4-0h2h4-0--|
 
 x2
e|------------------------------------------------------|
B|------------------------------------------------------|
G|------------------------------------------------------|
D|12p0----------------9-----12p0------0h12h14/16/14/12--|
A|-----12-9-0h9h10h12---12-------12-9-------------------|
D|------------------------------------------------------|

e|------------------------------------------------------|
B|------------------------------------------------------|
G|------------------------------------------------------|
D|12p0------------------12p0----------------------------|
A|-----12-9-9h10p9-7-5-------12-9-9h10p9-7-5------------|
D|------------------------------------------------------|

e|-------------------------------------------------------------------------------------|
B|------------------------------------------------------------------14141414--15151515-|
G|4444-7777-9999-7777-11111111-7777-14141414-11111111-16161616-9999-x-x-x-x---x-x-x-x--|
D|xxxx-xxxx-xxxx-xxxx-x-x-x-x--xxxx-x-x-x-x--x-x-x-x--x-x-x-x--xxxx-111111111-12121212-|
A|2222-5555-7777-5555-9-9-9-9--5555-12121212-9-9-9-9--14141414-7777--------------------|
D|-------------------------------------------------------------------------------------|

 Chorus

 Post Chorus
e|----------|
B|----------|
G|----------|
D|----------|
A|----4-----|
D|0-1---2---|

e|---------------------------------------------------------|
B|---------------------------------------------------------|
G|---------------------------------------------------------|
D|--------9-7--------------------------9-7--------12-10-9--|
A|-----10-----9h10p9-7-9-7-5-7------10-----9h10p9----------|
D|1010-------------------------1010------------------------|

e|---------------------------------------------------|
B|---------------------------------------------------|
G|---------------------------------------------------|
D|--------9-7--------------------------9-7-----------|
A|-----10-----9h10p9-7-9-7-5-7------10-----10-9-7-5--|
D|1010-------------------------1010------------------|

 x2
e|---------------------------------------------------------------7h8h10-10h15p10-----------|
B|--------------------------------------------------------7h8h10-----------------13-12-----|
G|-------------------------------------------------7h9h11------------------------------12--|
D|--------9-7-------------------------------7h9h10-----------------------------------------|
A|-----10-----9h10p9-7-9-7-5-7-------7h9h10------------------------------------------------|
D|1010-------------------------5h7h9-------------------------------------------------------|



e|----------------19t-7h10-19t--17t-7h10-17t--15t-7h10-15t--14t-7h10-14t--12t-7h10-12t--14t/--|
B|10-8--7-8-10-8------------------------------------------------------------------------------|
G|11-9--8-9-11-9------------------------------------------------------------------------------|
D|--------------------------------------------------------------------------------------------|
A|--------------------------------------------------------------------------------------------|
D|--------------------------------------------------------------------------------------------|

 x4
e|-----------------------------------|
B|5-xx-3-5-xx----------8p0-----7p0---|
G|5-xx-4-5-xx-2-4--------------------|
D|x-xx-x-x-xx-4-5--5p0-----4p0-------|
A|3----2-3----x-x--------------------|
D|------------4-5--------------------|

 x2
e|---------------------------------------------------------------7h8h10-10h15p10-----------|
B|--------------------------------------------------------7h8h10-----------------13-12-----|
G|-------------------------------------------------7h9h11------------------------------12--|
D|--------9-7-------------------------------7h9h10-----------------------------------------|
A|-----10-----9h10p9-7-9-7-5-7-------7h9h10------------------------------------------------|
D|1010-------------------------5h7h9-------------------------------------------------------|



e|----------------19t-7h10-19t--17t-7h10-17t--15t-7h10-15t--14t-7h10-14t--12t-7h10-12t--14t/--|
B|10-8--7-8-10-8------------------------------------------------------------------------------|
G|11-9--8-9-11-9------------------------------------------------------------------------------|
D|--------------------------------------------------------------------------------------------|
A|--------------------------------------------------------------------------------------------|
D|--------------------------------------------------------------------------------------------|

 Chorus x2

 Post Chorus


===============================================================================================

 Guitar 2

 x2 (0.57 - 1.15) (1.53 - 2.13)
e|------------------------------------------|
B|------------------------------------------|
G|------------------------------------------|
D|--4-5-4---4-5-4------4-5-4---4-5-4--------|
A|------------------------------------------|
E|------------------------------------------|
    . . .   . . .      . . .   . . .
Suggest correction
Give kudos to tab author, rate the tab!
1 2 3 4 5
comments
print report bad tab
3 comments total.
0 reply
EpilepticKitten 10 Dec 12, 2009 06:21 PM

i'm really blown away at how perfect this is.

0 reply
snakpeit diego 219 Dec 24, 2011 05:02 PM

Thomas Erak uses this cords more than octaves (Maybe there are 2 or 3 guitars in the mix because you can hear a very high notes and low palm mutes and the scratching rhythym between the cords al at the same time) And I dont think this song is tuned in Drop D, it's standard, you can clearly hear the open E low in the intro)

e|------------------------------------------------------|
B|-5-x-5-x-8-x-8-x-x-x-7-x-7-x-10-x-10-x-8-x-8-x-8------|
G|-4-x-4-x-9-x-9-x-x-x-8-x-8-x-12-x-12-x-8-x-8-x-9------|
D|-5-x-5-x-9-x-9-x-x-x-9-x-9-x-11-x-11-x-9-x-9-x-8------|
A|------------------------------------------------------|
E|------------------------------------------------------|

0 reply
snakpeit diego 219 Dec 24, 2011 05:06 PM

Dud! what a dumb I wrote it wrong, this is the correct :P

e|---------------------7---7---10---10---8---8---8------|
B|-5-x-5-x-8-x-8-x-x-x-8-x-8-x-12-x-12-x-8-x-8-x-8------|
G|-4-x-4-x-9-x-9-x-x-x-9-x-9-x-11-x-11-x-9-x-9-x-9------|
D|-5-x-5-x-9-x-9-x-x-x----------------------------------|
A|------------------------------------------------------|
E|------------------------------------------------------|

guest
You may want to rate the tab now too:
select rating
Wanna post a correction for this tab? Suggest correction