Oops, an error
Loading. Please wait.

Problem Tab

version 1
version 1

Whole song

Interactive

7,334 views 18 this week
10 commentsread comments
1 2 3 4 5
accurate
x 10
add to favorites
launch autoscroll
font size
0
reset
how to read this tab
guitar tuner
Autoscroll
slow
fast
+/-
esc
set tempo
stop
Help us to improve Ultimate-Guitar.com Take our survey!
×
Author
Difficulty
intermediate
THE FALL OF TROY - PROBLEM!?

tabbed by: matddors@comcast.net


this is how i play it.



INTRO

e|-----------------------------------------------------------------------------------|
B|-----------------------------------------------------------------------------------|
G|-9/4-4-------------------9/4-4-------------------9/4-4-------------------9/4-4--?^-|
D|-x-x-x------0h2h3p2p0----x-x-x------0h3p2p0------x-x-x------0h2h3p2p0----x-x-x-----|
A|-7/2-2-0h2h3---------3p2-7/2-2-0h2h3-------3p2p0-7/2-2-0h2h3---------3p2-7/2-2-----|
E|-----------------------------------------------------------------------------------|

INTRO (2x)

e|-------------------------------------------------|
B|-9-4-4-------------------9-4-4-------------------|
G|-9/4-4-------------------9/4-4-------------------|
D|-x-x-x------0h2h3p2p0----x-x-x------0h3p2p0------|
A|-7/2-2-0h2h3---------3p2-7/2-2-0h2h3-------3p2p0-|
E|-------------------------------------------------|

VERSE

e|-------------------------|
B|-------------------------|
G|-222222---------2222---5-|
D|-222222---------2222-5-5-|
A|-000000-3p0-3p0-0000-5-3-|
E|---------------------3---|

VERSE 

e|--------------------------|
B|-----------------------?^-|
G|-2-2-2-2---------?^-------|
D|-2-2-2-2------------------|
A|-0-0-0-0-3p0-3p0----------|
E|--------------------------|

VERSE (2x)

e|-------------------------|
B|-------------------------| 
G|-222222---------2222---5-|
D|-222222---------2222-5-5-|   
A|-000000-3p0-3p0-0000-5-3-|
E|---------------------3---|

VERSE 

e|----------------------151719?^-[-17h19-15-19-17h19p0-15---??????-----]-|
B|-----------------1517----------[------------------------17??????-10b-]-|
G|-14p0-[6x]-171417--------------[--------------------------??????-----]-|
D|-------------------------------[--------------------------??????-----]-|
A|-------------------------------[--------------------------??????-----]-|
E|-------------------------------[--------------------------??????-----]-|

INTRO

e|------------------------------------------------------------------------------------|
B|------------------------------------------------------------------------------------|
G|-9/4-4-------------------9/4-4-------------------9/4-4-------------------9/4-4--///-|
D|-x-x-x------0h2h3p2p0----x-x-x------0h3p2p0------x-x-x------0h2h3p2p0----x-x-x--///-|
A|-7/2-2-0h2h3---------3p2-7/2-2-0h2h3-------3p2p0-7/2-2-0h2h3---------3p2-7/2-2--///-|
E|------------------------------------------------------------------------------------|
                                                                               pick slide
INTRO (2x)

e|-------------------------------------------------|
B|-9-4-4-------------------9-4-4-------------------|
G|-9/4-4-------------------9/4-4-------------------|
D|-x-x-x------0h2h3p2p0----x-x-x------0h3p2p0------|   
A|-7/2-2-0h2h3---------3p2-7/2-2-0h2h3-------3p2p0-|
E|-------------------------------------------------|

INTERLUDE (2x)

e|-----------------------|
B|--1-1--0--0--1-1-0--0--|
G|--2-2--2--2--2-2-2--2--|
D|-----------------------|
A|-0-0-------------------|
E|------3-33-22-2-1-10---|

INTERLUDE

e|---------------------------------------------------------------|
B|-8-----10-----8--------------8----8----8----8----8-10--1312-15-|
G|---9-7----9-7---9-7--------------------------------------------|
D|--------------------10-9-9h10-9h10-9h10-9h10-9h10--------------|
A|---------------------------------------------------------------|
E|---------------------------------------------------------------|

INTERLUDE

e|-17----15-----19----17-----20-19-20-22-22bbbbbb-|
B|----17----15-----20----17-----------------------|
G|------------------------------------------------|
D|------------------------------------------------|
A|------------------------------------------------|
E|------------------------------------------------|
 
INTERLUDE 2

e|-----------------------------------------------------------------------------------|
B|-----------------------------------------------------------------------------------|
G|-2-2222-4-44-44-5-5555-7-7-9-99-14-14141414-16-1616-1616-17-17171717-21-21-21-1919-|
D|-x-xxxx-x-xx-xx-x-xxxx-x-x-x-xx--x--x-x-x-x--x--x-x--x-x--x--x-x-x-x--x--x--x--x-x-|
A|-0-0000-2-22-22-3-3333-5-5-7-77-12-12121212-14-1414-1414-15-15151515-19-19-19-1717-|
E|-----------------------------------------------------------------------------------|

INTERLUDE 2

e|-----------------------------------------------------------------------------------------|
B|-----------------------------------------------------------------------------------------|
G|-7/999-7/999--12-7/999-7/999-5--7/999-12-12-12/1414-14/1616-16/1717-17/1919-19/21-212119-|
D|-x-xxx-x-xxx---x-x-xxx-x-xxx-x--x-xxx--x--x--x--x-x--x--x-x--x--x-x--x--x-x--x--x-x-x-x--|
A|-5/777-5/777--10-5/777-5/777-3--5/777-10-10-10/1212-12/1414-14/1515-15/1717-17/19-191917-|
E|-----------------------------------------------------------------------------------------|

OUTRO

e|---------------|
B|---------------|
G|-2---2---2---2-|
D|-2---2---2---2-|
A|-0---0---0---0-|
E|---------------|

OUTRO

e|-----------------7p0-7-3-5-----------------12p0-12-8-10p8-|
B|-1/3-5p3-5-6p5-6-----------1/3-5p3-5-6p5-6----------------|
G|----------------------------------------------------------|
D|----------------------------------------------------------|
A|----------------------------------------------------------|
E|----------------------------------------------------------|

OUTRO

e|-----------------7p0-7-3-5-----------------12p0-12-10-8-7/-|
B|-1/3-5p3-5-6p5-6-----------1/3-5p3-5-6p5-6-----------------|
G|-----------------------------------------------------------|
D|-----------------------------------------------------------|
A|-----------------------------------------------------------|
E|-----------------------------------------------------------|
Suggest correction
comments
print report bad tab
10 comments total. Showing first comments.
0 reply
flipNk24 52 wrote on May 15 2007, 04:48 pm

very nice.

0 reply
watchtheworldtd 31 wrote on October 9 2007, 08:28 pm

intro chords are wrong.

it'ssss...

e|----------
B|----------
G|-14-14/9~-
D|-13-13/8~-
A|-12-12/7~-
E|----------

0 reply
xxthermadorrrxx 10 wrote on October 15 2007, 08:27 pm

yeah the intro doesnt really sound right. and are those ?^ supposed to be pinch harmonics orrrr??? i lovew this song and u did a good job :]

guest
You may want to rate the tab now too:
select rating
Please do not post tabs as comments. Select "correction" instead!