Oops, an error
Loading. Please wait.

Problem Tab

version 2
version 2

Whole song

Interactive

640 views 3 this week
no commentswrite comment
1 2 3 4 5
please rate
add to favorites
launch autoscroll
font size
0
reset
how to read this tab
guitar tuner
Tab Pro tools
  • play this tab
  • loop segment
  • change instrument
  • show fretboard
  • metronome
×
Best way to learn
"Problem"
Autoscroll
slow
fast
+/-
esc
set tempo
stop
Contributor
Artist: Fall of Troy
Album: Manipulator
Tabbed by: Sam

Key: A minor (Aeolian Mode)

Tuning: EADGBe (Standard)

Enjoy-

INTRO: (0:01)

Guitar 1:

e|-----------------------------------------------------------|
B|-----------------------------------------------------------|
G|-----------------------------------------------------------|
D|-2-2--2---------0-2-3-2-0-----2-2--2---------0-3-2-0-------|
A|-x-x--x---0-2-3-----------3-2-x-x--x---0-2-3---------3-2-0-|
E|-0-0--0-----------------------0-0--0-----------------------|
           PM==================         PM==================

e|-----------------------------------------|
B|-----------------------------------------|
G|-----------------------------------------|
D|-2-2--2---------0-2-3-2-0-----2-2--2-----|
A|-x-x--x---0-2-3-----------3-2-x-x--x---0-|
E|-0-0--0-----------------------0-0--0-----|
           PM==================

Guitar 2:

e|----------------------------------------------------------------------|
B|----------------------------------------------------------------------|
G|-13s\-8---8s\-------13s\-8---8s\------13s\-8---8s\-------13s\-8---8s\-|
D|-14s\-9---9s\-------14s\-9---9s\------14s\-9---9s\-------14s\-9---9s\-|
A|-12s\-7---7s\-------12s\-7---7s\------12s\-7---7s\-------12s\-7---7s\-|
E|----------------------------------------------------------------------|

Then

Guitar 1: strum above the nut of your guitar

or

Guitar 2:

e|------------------------------|
B|------------------------------|
G|---------------------10h12h14-|
D|------------12h14h15----------|
A|---12h14h15-------------------|
E|------------------------------|
    PM===============

VERSE 1: (0:07)

Guitar 1:

e|-----------------------------------------------------------|
B|-----------------------------------------------------------|
G|-----------------------------------------------------------| x2
D|-2-2--2---------0-2-3-2-0-----2-2--2---------0-3-2-0-------|
A|-x-x--x---0-2-3-----------3-2-x-x--x---0-2-3---------3-2-0-|
E|-0-0--0-----------------------0-0--0-----------------------|

Guitar 2:
        
e|----------------------------------------------------------------------|
B|----------------------------------------------------------------------|
G|-13s\-8---8s\-------13s\-8---8s\------13s\-8---8s\-------13s\-8---8s\-|
D|-14s\-9---9s\-------14s\-9---9s\------14s\-9---9s\-------14s\-9---9s\-|
A|-12s\-7---7s\-------12s\-7---7s\------12s\-7---7s\-------12s\-7---7s\-|
E|----------------------------------------------------------------------|
   
Just Guitar 1:

e|-----------------------------------------------------------------------|
B|---------------------------------------------------------------<11b12>-|
G|-2-------------------------------------------------------<3bv>---------|
D|-2-2-2-2-2-2(2)------2-2-2-2-------------2-2-2-2(2)--------------------|
A|-0-0-0-0-0-0-3p0-3p0-0-0-0-0-x----x-3b---0-0-0-0-3p0-3p0---------------|
E|-----------------------------x-3b-x------------------------------------|
     PM=======         =======

Guitar 2:

e|-----------------------------------------|
B|-----------------------------------------|
G|-----------------------------------------| Then slide left hand and pick up and down strings
D|-----------------------------------------|
A|-----------------------------x----x-3b---|
E|-----------------------------x-3b-x------|

Guitar 1 & 2:

e|--------------------------------------------------------------------------|
B|--------------------------------------------------------------------------|
G|-2---------------------------------5--2---------------------------------5-|
D|-2-2-2-2-2-2-2---2---2-2-2-2---5---5--2-2-2-2-2-2-2---2---2-2-2-2---5---5-|
A|-0-0-0-0-0-0-3p0-3p0-0-0-0-0-x-5-x-3--0-0-0-0-0-0-3p0-3p0-0-0-0-0-x-5-x-3-|
E|-----------------------------x-3-x--------------------------------x-3-x---|

SOLO 1: (0:29)

Guitar 1:

e|----------------------------------------------------15-<17b19>-|
B|----------------------------------------15----15-17------------|
G|-14p0-14p0-14p0-14p0-14p0-14p0-17-14-17----17------------------|
D|---------------------------------------------------------------|
A|---------------------------------------------------------------|
E|---------------------------------------------------------------|

Fretboard hand plays this with fast tremolo picking:

e|-15h19p17p15--15h19p17p15-15h19p17p15---------------------------------------------|
B|------------17-----------------------17-15h17p15----------------------------------|
G|------------------------------------------------17p16h17p16p14h16p14s\12h14-14b16-|
D|----------------------------------------------------------------------------------|
A|----------------------------------------------------------------------------------|
E|----------------------------------------------------------------------------------|

Guitar 2:

e|--------------------------------------------------------------------------|
B|--------------------------------------------------------------------------|
G|-2---------------------------------5--2---------------------------------5-|
D|-2-2-2-2-2-2-2---2---2-2-2-2---5---5--2-2-2-2-2-2-2---2---2-2-2-2---5---5-|
A|-0-0-0-0-0-0-3p0-3p0-0-0-0-0-x-5-x-3--0-0-0-0-0-0-3p0-3p0-0-0-0-0-x-5-x-3-|
E|-----------------------------x-3-x--------------------------------x-3-x---|

VERSE 2: (0:38)

Guitar 1:

e|-----------------------------------------------------------|
B|-----------------------------------------------------------|
G|-----------------------------------------------------------|
D|-2-2--2---------0-2-3-2-0-----2-2--2---------0-3-2-0-------|
A|-x-x--x---0-2-3-----------3-2-x-x--x---0-2-3---------3-2-0-|
E|-0-0--0-----------------------0-0--0-----------------------|
           PM==================         PM==================

e|-----------------------------------------|
B|-----------------------------------------|
G|-----------------------------------------|
D|-2-2--2---------0-2-3-2-0-----2-2--2-----|
A|-x-x--x---0-2-3-----------3-2-x-x--x---0-|
E|-0-0--0-----------------------0-0--0-----|
           PM==================

Guitar 2:

e|----------------------------------------------------------------------|
B|----------------------------------------------------------------------|
G|-13s\-8---8s\-------13s\-8---8s\------13s\-8---8s\-------13s\-8---8s\-|
D|-14s\-9---9s\-------14s\-9---9s\------14s\-9---9s\-------14s\-9---9s\-|
A|-12s\-7---7s\-------12s\-7---7s\------12s\-7---7s\-------12s\-7---7s\-|
E|----------------------------------------------------------------------|


Then:

Guitar 1: Then slide pick up strings

or

Guitar 2:

e|-------------0-|
B|-------------0-|
G|-x-x-x-x-x-x---|
D|-x-x-x-x-x-x---|
A|-x-x-x-x-x-x---|
E|---------------|

Guitar 1:

e|-----------------------------------------------------------|
B|-----------------------------------------------------------|
G|-----------------------------------------------------------| x2
D|-2-2--2---------0-2-3-2-0-----2-2--2---------0-3-2-0-------|
A|-x-x--x---0-2-3-----------3-2-x-x--x---0-2-3---------3-2-0-|
E|-0-0--0-----------------------0-0--0-----------------------|
Guitar 2:

e|----------------------------------------------------------------------|
B|----------------------------------------------------------------------|
G|-13s\-8---8s\-------13s\-8---8s\------13s\-8---8s\-------13s\-8---8s\-|
D|-14s\-9---9s\-------14s\-9---9s\------14s\-9---9s\-------14s\-9---9s\-|
A|-12s\-7---7s\-------12s\-7---7s\------12s\-7---7s\-------12s\-7---7s\-|
E|----------------------------------------------------------------------|

BRIDGE (AND SOLO 2): (0:53)

Guitar 2: Riff throughout solo-

e|-------------------------------------------------------------------------------|
B|---1---1---0-----0------1---1---0-----0---1---1---0-----0------1---1---0-----0-|
G|---2---2---2-----2------2---2---2-----2---2---2---2-----2------2---2---2-----2-| x3
D|-------------------------------------------------------------------------------|
A|-0--0-----------------------------------0--0-----------------------------------|
E|---------3---3-3----3-2--2----1---1-0-----------3---3-3----3-2--2----1---1-0---|
   PM (All root Notes)

Guitar 1:

e|---------------------------------------|
B|---------------------------------------|
G|---------------------------------------|                 (Start from beginning
D|-x---x-x---x---x-x---x---x-x---x---x-x-|  of second half of first repeat above riff on Guitar 2)
A|-x---x-x---x---x-x---x---x-x---x---x-x-|
E|-x---x-x---x---x-x---x---x-x---x---x-x-|

e|--------------------------------------------------------------------------|
B|-8-----10-----8---------------8------8------8------8------8-10-s/13-12-15-|
G|---9-7----9-7---9-7-------------------------------------------------------|
D|--------------------10-9-9h10---9h10---9h10---9h10---9h10-----------------|
A|--------------------------------------------------------------------------|
E|--------------------------------------------------------------------------|

e|-17-12-15--------19-15-17--------20-19--19-20--22---22b24-|
B|----------15(v)-----------17(v)---------------------------|
G|----------------------------------------------------------|
D|----------------------------------------------------------|
A|----------------------------------------------------------|
E|----------------------------------------------------------|

SOLO 2 CONTINUED: (1:16)

Just octaves and '5' chords- I'm sure you can figure out the strumming pattern because 
it would take yonks to write out, but it's pretty much the same pattern as Guitar 2 plays-

Guitar 1:

e|---------------------------------------------------------------------------------------------|
B|---------------------------------------------------------------------------------------------|
G|------------------14--16--17--21--19--9--7--9--12--9--7--9--5--9--12--14--16--17--19--21--19-|
D|-7--9-10--12--14-----------------------------------------------------------------------------|
A|------------------12--14--15--19--17--7--5--7--10--7--5--7--3--7--10--12--14--15--17--19--17-|
E|-5--7--8--10--12-----------------------------------------------------------------------------|

Guitar 2:- Slightly harder to hear so here I've tabbed out the strumming pattern as well:

e|--------------------------------------|---------|
B|--------------------------------------|---------|
G|--------------------------------------|-2-2-2-2-|
D|-7-7-777-5-5-55-5-4-4-444-3-3-32-2----|-2-2-2-2-|
A|-7-7-777-5-5-55-5-4-4-444-3-3-32-2-x4-|-0-0-0-0-|
E|-5-5-555-3-3-33-3-2-2-222-1-1-10-0----|---------|

OUTRO: (1:37)

Guitar 1: Slide pick down strings, into:

e|---------------------------------------------------------------------------------------------|
B|---------------------12p10h12-p10s\8h10-------------------------17p15h17-s/20-s\17-15-h17(v)-|
G|-9p7h9(v)-10p9h10(v)--------------------7h9-9p7h9(v)-10p9h10(v)------------------------------|
D|---------------------------------------------------------------------------------------------|
A|---------------------------------------------------------------------------------------------|
E|---------------------------------------------------------------------------------------------|

e|-----------------------------------------------------------------------------------|
B|---------------------12p10h12-8-h10----------------------------17p15h17-15---------|
G|-9p7h9(v)-10p9h10(v)----------------7h9(v)-9p7h9(v)-10p9h10(v)-------------17-16s\-|
D|-----------------------------------------------------------------------------------|
A|-----------------------------------------------------------------------------------|
E|-----------------------------------------------------------------------------------|

Guitar 2:

e|---0-----0-----0------------------0-----0-----0------------------0---0---0---0---0---0---0---0-|
B|-----0-----0------------------------0-----0----------------------0---0---0---0---0---0---0---0-|
G|-4-----5-----7---9p7h9p7s\5p0---4-----5-----7---9p7h9s/12s\9p7---4---5---7---9---4---5---7---9-|
D|-----------------------------------------------------------------------------------------------|
A|-----------------------------------------------------------------------------------------------|
E|-----------------------------------------------------------------------------------------------|

e|---|
B|---|
G|-2-|
D|-2-|
A|-0-|
E|---|

END

Hope you enjoy and please feel free to rate :)

| /  slide up
| \  slide down
| h  hammer-on
| p  pull-off
| v  vibrato
| +  harmonic
| <> pinch harmonic
| x  Mute note
| PM Palm mute (=)
comments
We did not receive enough feedback on this tab! Please rate:
print report bad tab
1 2 3 4 5
I want to post or [tab]
guest
You may want to rate the tab now too:
select rating
Please do not post tabs as comments. Select "correction" instead!