Oops, an error
Loading. Please wait.

Reassurance Rests In The Sea Bass Tab

2,541 views 1 this week
no commentswrite comment
1 2 3 4 5
1 last vote to show rating
add to favorites
launch autoscroll
font size
0
reset
guitar tuner
Autoscroll
slow
fast
+/-
esc
set tempo
stop
Help us to improve Ultimate-Guitar.com Take our survey!
×
Author
Difficulty
novice
Band: The Fall Of Troy
Song: Reassurance Rests In The Sea
Album: The Fall Of troy
Tabbed by: choke383
Normal Tuning: GDAE


0:03
G|---------------------------------------|
D|---------------------------------------|
A|-----333333333333333322222222----------|
E|0-0-0------------------------33333333--|

G|-------------------------------------------------------------------|
D|-------------------------------------------------------------------|
A|---------------------------------333333333333333322222222----------|
E|55555---55555---55555---55550-0-0------------------------33333333--|x2

G|-----|
D|-----|
A|-----|
E|--5--|


0:31
G|-----------------------------------------------------------------------------------------|
D|-----------------------------------------------------------------------------------------|
A|7777-77-77-7777-77-77----------------------77777-77-77-77777-77-77-----------------------|
E|---------------------8888-88-88-55553/5-3/5------------------------8888-88-88-5555-5--5--|


0:45
G|----------------------------------------------------------------|
D|----------------------------------------------------------------|
A|77777777777775557777777777777555--------------------------------|
E|--------------------------------888888888888885555555577777777--|x2


1:02
G|------------------------|
D|------------------------|
A|77-777-799-999-9--------|
E|----------------88-888--|x4


1:24
G|------16------------16---------------------------------------------|
D|---14------14----14------14---------9h10----10----10---9h10----10--|
A|15------------15-------------12--10------10-----12--10------10-----|
E|-------------------------------------------------------------------|x4


1:47
G|------------------------|
D|------------------------|
A|77-777-799-999-9--------|
E|----------------88-888--|x4


2:15
G|------13\11-9------------------------13\11-9----------------------12-10----------|
D|---14---------9/11--------9/12----14---------9/11--------9/12-----------12-10h12-|
A|12-----------------12-11\9-----12-----------------12-11\9-----10-----------------|
E|---------------------------------------------------------------------------------|

G|----------------12-10-----------------------|
D|----------------------12-10h12--------------|
A|13-10h12----10-----------------13-10h12-----|
E|---------13-----------------------------13--|x6


3:23
G|------------------------|
D|------------------------|
A|77-777-799-999-9--------|
E|----------------88-888--|x4

G|----------------------------------|
D|----------------------------------|
A|7777777799999999------------------|
E|----------------8888888888888888--|x3

G|------------------------|
D|------------------------|
A|7777777799999999--------|
E|----------------888888--|



Any comments, questions or jokes send to style444@hotmail.com
Suggest correction
Give kudos to tab author, rate the tab!
1 2 3 4 5
comments
print report bad tab
guest
You may want to rate the tab now too:
select rating
Wanna post a correction for this tab? Suggest correction