Oops, an error
Loading. Please wait.

Semi Fiction tab

version 1
version 1

Whole song

Interactive

19,649 views 6 this week
2 commentsread comments
1 2 3 4 5
x 13
add to favorites
×
Save as Personal and add changes to this tab that will be seen only by you. Learn more ›
×
You can save this tab as Personal to edit and correct it or add notes. All changes will be seen only by you. Learn more »
launch autoscroll
font size
0
reset
how to read this tab
guitar tuner
edit
Autoscroll
slow
fast
+/-
esc
set tempo
stop
Full song

Tuning: Standard

Intro

e|------------------------------------------------|
B|------------------------------------------------|
G|--------------------------------4444444444444444|then some noise
D|555555555555555544444444444444445555555555555555|
A|222222222222222233333333333333335555555555555555|
E|------------------------------------------------|

Verse Chords(listen to song for rythm)

e|0-------------10------|
B|6-------------x-------|
G|9-(11-o-17)--12--17---|
D|9-(10-r-16)--12--16---|
A|7-(9----15)--10--15---|
E|0---------------------|

"Chorus"

e|------------------------|------3p0-|
B|------------------------|----------|
G|----------15-15/--------|3-6-------|
D|2-2--2-2-14-15/-2-2--2-2|----------|
A|2-2--2-2-13-13/-2-2--2-2|----------|
E|0-0--0-0-12-13/-0-0--0-0|----------|

play the 1st part of the chorus again then do this

e|-------15p0|
B|-----------|
G|15-18------|
D|-----------|
A|-----------|
E|-----------|

then play the entire chorus again and then end on the 15th fret of the high e string

verse again
chorus
verse

Breakdown

e|-|->---6-0-7-----------8------------|0-2-3-5-0~~~-------6-------12p0|
B|-|c>-4-------8---0---7---0-10-8-7--|-----------4-4-0-0-3---5-3-0----|
G|2|o>-----------9---8---------------7|-------------------------------|
D|-|d>--------------------------------|-------------------------------|
A|-|a>--------------------------------|-------------------------------|
E|-|->--------------------------------|-------------------------------|

go back to the coda after each 12p0 on the e string. repeat a couple of times. then play 
fast run in

e|0h2h3p2p0h3h5p3p0h5h7p5p0h7h8p7p0h8h10p8p0|--------------|
B|------------------------------------------------|--------|
G|------------------------------------------------|12-12-14|
D|------------------------------------------------|12-12-14|
A|------------------------------------------------|10-10-12|
E|------------------------------------------------|--------|

Dual Guitar Part

Guitar 1(mixed to the left channel)

e|10p0----12p0--------------------------|
B|------0-------0-12p0------------------|
G|----------------------0-12p0-12p0-14--|
D|--------------------------------------|
A|--------------------------------------|
E|--------------------------------------|

then this twice

e|10p0----12p0--------------------------|
B|------0-------0-12p0------------------|
G|----------------------0-12p0-12p0-10--|
D|--------------------------------------|
A|--------------------------------------|
E|--------------------------------------|

end on this

e|10p0----12p0----12h15p12-----------------|
B|------0-------0------------15-13-15-12-10|
G|-----------------------------------------|
D|-----------------------------------------|
A|-----------------------------------------|
E|-----------------------------------------|

Guitar 2(mixed to right channel)

e|------------------------------=--|
B|12p0--13p0-----------------------|
G|-----0-----0-12p0----------------|
D|-------------------0-12p0-12p0-14|
A|---------------------------------|
E|---------------------------------|

then this twice

e|---------------------------------|
B|12p0--13p0-----------------------|
G|-----0-----0-12p0----------------|
D|-------------------0-12p0-12p0-10|
A|---------------------------------|
E|---------------------------------|

end with this

e|-------------------------------------|
B|12p0--13p0---12h13p12----------------|
G|-----0------0-----------14-12-14-11-9|
D|-------------------------------------|
A|-------------------------------------|
E|-------------------------------------|

both dual guitar parts are played twice

then the near end!

e|----3-3-3------0-0-0----5-5--000000000000-16/|
B|----5-5-5------4-4-4----3-3--554455445544----|
G|55----------55-------55----------------------|
D|77----------77-------77----------------------|
A|00----------00-------00----------------------|
E|---------------------------------------------|

then this twice(bridge)

e|---5-5-5----0-0-0----5-5-5----0000---------|
B|---3-3-3----4-4-4----3-3-3----5544-4p0-----|
G|55-------55-------55-------55-----------4p0|
D|77-------77-------77-------77--------------|
A|00-------00-------00-------00--------------|
E|-------------------------------------------|

e|---0-0-0----0---0-0----0-0-0----4-4-4|
B|---4-4-4----1/3-1-0----4-4-4----6-6-6|
G|-------------------------------------|
D|66-------66---------33-------33------|
A|77-------77---------33-------33------|
E|44-------44---------11-------11------|

then let the x075xx ring out...then the solo!

Key- (0)= is an optional note
*=hold note out a bit longer(listen to the song for timing)

e|-----|-------------------------7p0-----8p0-----10p0-------|
B|-----|10p0-----8p0-----5p0---------8p0-----9p0------12p(0)|
G|5-5-5|-----9p0-----7p0-----5p0----------------------------|
D|7-7-7|----------------------------------------------------|
A|0-0-0|----------------------------------------------------|
E|-----|----------------------------------------------------|

e|-----|12p0---------15p0-----------19p0-------22--19|
B|-----|-----13*p0----------17*p0--------20*p0-------|
G|5-5-5|---------------------------------------------|
D|6-6-6|---------------------------------------------|
A|-----|---------------------------------------------|
E|4-4-4|---------------------------------------------|

then repeat the bridge again and stab this chord 11 times

e|4-|
B|6-|
G|6-|
D|--|
A|--|
E|--|

and the end chords(the last chord is stabbed 5 times, 6 times, 7 times twice, then end with 12 times)

e|------------|--|
B|11-7-4-11-7-|12|
G|------------|--|
D|9--5-2-9--5-|10|
A|------------|--|
E|------------|--|
Suggest correction
Creating personal tab
Creating personal tab
You can edit any tab online and save it as your Personal.

You can edit, replace or remove any tab part or add personal notes – all changes will be seen only by you.

Personal tabs can be accessed anytime from any device, even offline.
Learn more »
comments
print report bad tab
2 comments total.
0 reply
boomyouscream 10 May 09, 2007 03:31 PM

e|----3-3-3------0-0-0----5-5--000000000000-16/|
B|----5-5-5------4-4-4----3-3--554455445544----|
G|55----------55-------55----------------------|
D|77----------77-------77----------------------|
A|00----------00-------00----------------------|
E|---------------------------------------------|

then this twice(bridge)

e|---3-3-3----0-0-0----3-3-3----0000---------|
B|---5-5-5----4-4-4----5-5-5----5544-4p0-----|
G|55-------55-------55-------55-----------4p0|
D|77-------77-------77-------77--------------|
A|00-------00-------00-------00--------------|
E|-------------------------------------------|

e|---0-0-0----0---0-0----0-0-0----4-4-4|
B|---4-4-4----1/3-1-0----4-4-4----6-6-6|
G|-------------------------------------|
D|66-------66---------33-------33------|
A|77-------77---------33-------33------|
E|44-------44---------11-------11------|


should be:

e|----3-3-3------0-0-0----3-3--000000000000-16/|
B|----5-5-5------4-4-4----5-5--554455445544----|
G|55----------55-------55----------------------|
D|77----------77-------77----------------------|
A|00----------00-------00----------------------|
E|---------------------------------------------|

e|---3-3-3----0-0-0----3-3-3----0000---------|
B|---5-5-5----4-4-4----5-5-5----5544-4p0-----|
G|55-------55-------55-------55-----------4p0|
D|77-------77-------77-------77--------------|
A|00-------00-------00-------00--------------|
E|-------------------------------------------|

e|---0-0-0----0---0-0----0-0-0----4-4-4|
B|---4-4-4----1/3-1-0----4-4-4----6-6-6|
G|-------------------------------------|
D|66-------66---------33-------33------|
A|77-------77---------33-------33------|
E|44-------44---------11-------11------|

0 reply
kylepianoman 213 Feb 26, 2009 05:13 PM

The guitar pro version has an easier way for the breakdown... can you change it to that?

guest
You may want to rate the tab now too:
select rating
Wanna post a correction for this tab? Suggest correction