Oops, an error
Loading. Please wait.

Sledgehammer bass

version 1
version 1

Whole song

Interactive

3,396 views 1 this week
8 commentsread comments
1 2 3 4 5
x 5
add to favorites
×
Save as Personal and add changes to this tab that will be seen only by you. Learn more ›
×
You can save this tab as Personal to edit and correct it or add notes. All changes will be seen only by you. Learn more »
launch autoscroll
font size
0
reset
guitar tuner
edit
Autoscroll
slow
fast
+/-
esc
set tempo
stop
Author
-------------------------------------------------------------------------------
			   Sledgehammer - Fall of Troy
-------------------------------------------------------------------------------
Tabbed By: Valerie L.
e-mail: iloled@yahoo.com
Tuning:standard

as requested. this is all I have down right now but I'll try and finish the rest when I 
back from vacation!

Intro
G|-------------------------------------------------------------------------------|
D|-------------------------------------------------------------------------------|
A|4444-4--4444-4-4444-4-4444-7-0-6-0-5-0-4-0000-0-0000-0-0000-0-000-3-0-4-0-5-0-6|
E|-------------------------------------------------------------------------------|

G|---------------------------------------------------------------------------|
D|---------------------------------------------------------------------------|
A|4444-4-4444-4-4444-4-4444-7-0-6-0-5-0-0000-0-0000-0-0000-0-000-3-0-2-0-1-0-|
E|---------------------------------------------------------------------------|

Verse
G|-------------------------------------|
D|-------------------------------------|
A|---------------------------------22--|
E|-22-5-7-5-22-33-3/12-22-5-7-5-33-----| x3

PreChorus
G|-----------|
D|-----------|
A|----22-55--|
E|-33--------|

Chorus
G|-----------------------------------------------------------|
D|-------------------------444444----------------------------|
A|--------3-----------------------444444--3-3-3-3-3-3-3-3-3--|
E|6666-363--666666-2-2-2-2-----------------------------------|

post Verse
G|----------------------------|
D|----------------------------|
A|----------------------------|
E|2/12\2-2/12\2-2--2-2-2-2----| x2

Verse
G|---------------------------|
D|---------------------------|
A|---------------------------|
E|3/666-3/666-3/666-1h3-1h3--| x4

Verse
G|-------------------------------|    |-----------|
D|-------------------------------|    |-----------|
A|-------------------------------|    |-6~--------|
E|1-3-1-3-1-3-1-653-1-3-1-3-1-3--| x2 |-----------|

Verse
G|-------------------------------------|
D|-------------------------------------|
A|---------------------------------22--|
E|-22-5-7-5-22-33-3/12-22-5-7-5-33-----| x3

PreChorus
G|-----------|
D|-----------|
A|----22-55--|
E|-33--------|

Chorus x4
Post Verse x2

Bridge
G|-------------------|  |---------------10-8---|
D|-------------------|  |-------888-777--------|
A|55-55-5-55-55-5-55-|  |5/77-7----------------|
E|-------------------|  |----------------------|

repeat this whole thing 2x
G|---------2h3p2---|    |--------5h7p5---------------|
D|------55---------|    |------88------------88-875--|
A|---55------------|    |---88------------88---------|
E|33---------------| x2 |66------------66------------|

Breakdown
G|----------3-2----------77777-7-5-3-------|
D|----5-3-------3-x2-----------------------|
A|--5--------------------------------------|
E|3-------3--------------------------------|

The song's supposed to be in Drop D :| 
If you wanna play this part it's in Drop D
G|---------------------------------------|
D|---------------------------------------|
A|---------------------------------------|
E|0~--1-2-3-2-1-2-3--6-5-3-5-3-2-3-2-1-2-|

G|----------------------------------7777777-66666666-|
D|-----------------5555555-44444444------------------|
A|---------------------------------------------------|
E|0~-1-2-3-2-1-2-3-----------------------------------|

there all done!
Suggest correction
Creating personal tab
Creating personal tab
You can edit any tab online and save it as your Personal.

You can edit, replace or remove any tab part or add personal notes – all changes will be seen only by you.

Personal tabs can be accessed anytime from any device, even offline.
Learn more »
comments
print report bad tab
8 comments total. Showing first comments.
0 reply
bob_emo_monkey 114 May 31, 2007 04:50 PM

this is soooo good thank you very much

0 reply
Ride My Pole 10 Jun 07, 2007 10:15 PM

tab the breakdownnn cmonnnnn!

0 reply
iheart_a7x 3,681 Jun 10, 2007 06:36 PM

I updated it this morning. It should be on the UG site by monday.

guest
You may want to rate the tab now too:
select rating
Wanna post a correction for this tab? Suggest correction