Oops, an error
Loading. Please wait.

Sledgehammer Guitar Pro

version 2
version 2

Whole song

Interactive

10,190 views 3 this week
3 commentsread comments
1 2 3 4 5
x 8
add to favorites
guitar tuner
Autoscroll
slow
fast
+/-
esc
set tempo
stop
Author
Filesize
Instruments
43 Kb
lead guitar #1, lead guitar #2
"Sledgehammer"
demo version
Play now

or get full version for Free

×
Get full version now!
Learn and play this song
in Tab Pro
Try for free

or get $10 off Welcome Bonus

Get welcome bonus
Get access to Tab Pro version of “Sledgehammer”!
Tab Pro is a premium guitar tab service, available on PC, Mac, iOS and Android
TRY FOR FREE
To download “Sledgehammer” Guitar Pro tab click button below
Please note that you must have Guitar Pro software installed on your
computer in order to view this file.
Suggest correction
comments
report bad tab
3 comments total.
0 reply
_xo_ 72 Jul 02, 2008 09:34 AM

That was so good, this song is the s**t!!!
This is such a good one to play live because people are just like:
WHAT THE F**K!!

Thanks =]

+2 reply
remy2828 180 Sep 24, 2008 01:16 PM

dont take my work again. and if you do, at least copy it into guitar pro correctly.

0 reply
ThTylrBllmn 57 Nov 11, 2010 04:07 PM

The part that's like this:
|-------------3p--0------------|
|---5p--0------------3---------|
|*---------0------------4p--3--|
|*-----------------------------|
|------------------------------|
|------------------------------|

Should be this:
|-------------3p--0------------|
|---5p--0------------3p--0-----|
|*---------0----------------3--|
|*-----------------------------|
|------------------------------|
|------------------------------|

It's like three billion times easier.

guest
You may want to rate the tab now too:
select rating