Oops, an error
Loading. Please wait.

The Adventures Of Allan Gordon bass

501 views 1 this week
no commentswrite comment
1 2 3 4 5
3 more votes to show rating
add to favorites
×
Save as Personal and add changes to this tab that will be seen only by you. Learn more ›
×
You can save this tab as Personal to edit and correct it or add notes. All changes will be seen only by you. Learn more »
launch autoscroll
font size
0
reset
guitar tuner
edit
Autoscroll
slow
fast
+/-
esc
set tempo
stop
-------------------------------------------------------------------------------
             THE ADVENTURES OF ALLAN GORDON - The Fall of Troy
-------------------------------------------------------------------------------
Tabbed by: toastednoodle96 (Danny Stevenson)
E-mail: danny_stevenson22@hotmail.com

Tuning: Standard (EADG)

I saw that one or two people around the web had tried to make a tab of this song, 
unfortunately most tabs i found were pretty inaccurate so here's my take on the 
song. It should be near enough correct all the way through, but corrections 
and feedback are welcome :)

Have fun, enjoy and I hope this tab is helpful for you!

Tempo: 105bpm

0:00

INTRO
4/4 
   S  S  S  E   S  S  S  S  E   S  T   S. E   
|-----------16--16----------16--16-16S-17-16--|
|--14-14-14--------14-14-14-------------------|
|---------------------------------------------| X24
|---------------------------------------------|


0:53

GUITAR BREAK 1
4/4                          2/4

|-------------------|        |-------------------|
|-------rest--------|        |-------rest--------|
|-------------------| X3     |-------------------| X1
|-------------------|        |-------------------|


1:01

RIFF
7/8

   S S S S S S E.  S E  E   
|--------------------------|
|--------------------------|
|--3-3-3-------------7--7--| X12
|--------4-4-4-0---0-------|


1:25

BASS BREAK
4/4

   S  S  S  E   S  S  S  S  E   S  T   S. E   
|-----------16--16----------16--16-16S-17-16--|
|--14-14-14--------14-14-14-------------------|
|---------------------------------------------| X4
|---------------------------------------------|



   E  S E  S E  S E  S E  E     E  S E  S E  S E  S E  E                     |
|----------------------------|----------------------------|                  |
|-------9--9------9--9----9--|-------9--9------9--9----9--|                  |
|--7--7------7--7------7-----|--7--7------7--7------7-----|                  |
|----------------------------|----------------------------|                  |
                                                                             | X2
                                                                             |
   E.  E  S  E.   S  E   S  S  S  S     E.  E  S  E.   S  E   S  S  S  S     |
|------------------------------------|------------------------------------|  |
|--10---9--7-------------------------|--10---9--7-------------------------|  |
|------------10---10-10--10----------|------------10---10-10--10----------|  |
|---------------------------10-12-10-|---------------------------10-12-10-|  |


1:51

VERSE 1
4/4

   E  S E  S E  S E  S E  E     E  S E  S E  S E  S E  E                     |
|----------------------------|----------------------------|                  |
|-------9--9------9--9----9--|-------9--9------9--9----9--|                  |
|--7--7------7--7------7-----|--7--7------7--7------7-----|                  |
|----------------------------|----------------------------|                  |
                                                                             | X3
                                                                             |
   E.  E  S  E.   S  E   S  S  S  S     E.  E  S  E.   S  E   S  S  S  S     |
|------------------------------------|------------------------------------|  |
|--10---9--7-------------------------|--10---9--7-------------------------|  |
|------------10---10-10--10----------|------------10---10-10--10----------|  |
|---------------------------10-12-10-|---------------------------10-12-10-|  |


2:17

GUITAR BREAK 2
4/4                          2/4

|-------------------|        |-------------------|
|-------rest--------|        |-------rest--------|
|-------------------| X3     |-------------------| X1
|-------------------|        |-------------------|


2:23

VERSE 2/GUITAR SOLO
7/8
   S S S S S S E.  S E  E   
|--------------------------|
|--------------------------|
|--3-3-3-------------7--7--| X20
|--------4-4-4-0---0-------|


3:01

GUITAR BREAK 3
4/4
   S S S S S S S S S S S S S S S S    S S S S S S S S S S S S S S S S  
|----------------------------------|----------------------------------|
|----------------------------------|----------------------------------|
|----------------------------------|----------------------------------|
|--2-2---2-2---2-2---2-2---2-2---2-|--3-3---3-3---3-3---3-3---3-3---3-|


   S S S S S S S S S S S S S S S S    S S S S S S S S S S S S S E  S  
|----------------------------------|---------------------------------|
|----------------------------------|---------------------------------|
|----------------------------------|---------------------------------|
|--2-2---2-2---2-2---2-2---2-2---2-|--7-7---7-7---5-5---5-5---3-3--3-|




   S S S S S S S S S S S S S S S S    S S S S S S S S S S S S S S S S            
|----------------------------------|----------------------------------|
|----------------------------------|----------------------------------|
|----------------------------------|----------------------------------|
|--2-2---2-2---2-2---2-2---2-2---2-|--3-3---3-3---3-3---3-3---3-3---3-|

|-------------------|
|-------rest--------|        
|-------------------| X2
|-------------------| 


3:27

RIFF 2/GUITAR SOLO 2                                                     
4/4                                                                         |
   S S S S S S S S S S S S S S S S    S S S S S S S S S S S S S S S S       |
|----------------------------------|----------------------------------|     |
|----------------------------------|----------------------------------|     |
|----------------------------------|----------------------------------|     |
|--2-2---2-2---2-2---2-2---2-2---2-|--3-3---3-3---3-3---3-3---3-3---3-|     |
                                                                            |
                                                                            | X4
   S S S S S S S S S S S S S S S S    S S S S S S S S S S S S S S S S        |
|----------------------------------|----------------------------------|     |
|----------------------------------|----------------------------------|     |
|----------------------------------|----------------------------------|     |
|--2-2---2-2---2-2---2-2---2-2---2-|--7-7-7-7-7-7-5-5-5-5-5-5-3-3-3-3-|     |
                                                                            |

4:00

OUTRO/LAST NOTE
4/4
   W                   W                   W                 
|-------------------|-------------------|-------------------|
|-------------------|-------------------|-------------------|
|-------------------|-------------------|-------------------| Gradually fade out
|--2----------------|--L----------------|--L----------------|


Everything should be pretty clear, but here's a legend just in case:

16s17 = Slide (In this case, slide up from 16th fret to 17th fret)
T = 32nd Note
S = 16th Note
E = 8th Note
Q = Quarter Note
H = Half Note
W = Whole Note
. = Dotted Note (play for 1.5x as long as regular note)
L = Tied Note (Note carried on from previous bar)

4/4, 7/8 = Time Signatures (How many beats in a measure in a specific part of the song)
X2 = Times Played (In this case, the adjacent part would be played twice)

            
            
Suggest correction
Creating personal tab
Creating personal tab
You can edit any tab online and save it as your Personal.

You can edit, replace or remove any tab part or add personal notes – all changes will be seen only by you.

Personal tabs can be accessed anytime from any device, even offline.
Learn more »
Give kudos to tab author, rate the tab!
1 2 3 4 5
comments
print report bad tab
guest
You may want to rate the tab now too:
select rating
Wanna post a correction for this tab? Suggest correction