Oops, an error
Loading. Please wait.

Tom Waits intro tab

version 1
version 1

Intro

Interactive

2,282 views 3 this week
3 commentsread comments
1 2 3 4 5
x 3
add to favorites
×
Save as Personal and add changes to this tab that will be seen only by you. Learn more ›
×
You can save this tab as Personal to edit and correct it or add notes. All changes will be seen only by you. Learn more »
launch autoscroll
font size
0
reset
how to read this tab
guitar tuner
edit
Autoscroll
slow
fast
+/-
esc
set tempo
stop
Author
----------------------------------------------------------------------------
                          Tom Waits
---------------------------------------------------------------------------


Michael_bamesberger@hotmail.com

e|---------------------------------------------------------------------------|
B|---------------------------------------------------------------------------|
G|------------------------------------------9--7--5--------------------------|
D|--------------10-10-10---------10-10-10------------------------------------|
A|-----7-7-7--------------7-7-7----------------------------------------------|
E|---------------------------------------------------------------------------|
       * * *              * * *

e|---------------------------------------------------------------------------|
B|---------------------------------------------------------------------------|
G|---------------10-10-10---------10-10-10---14-12-10------------------------|
D|-------7-7-7-------------7-7-7---------------------------------------------|
A|---------------------------------------------------------------------------|
E|---------------------------------------------------------------------------|
         * * *             * * *


The rest is way to crazy for my to try to figure out.

            
            
Suggest correction
Creating personal tab
Creating personal tab
You can edit any tab online and save it as your Personal.

You can edit, replace or remove any tab part or add personal notes – all changes will be seen only by you.

Personal tabs can be accessed anytime from any device, even offline.
Learn more »
Give kudos to tab author, rate the tab!
1 2 3 4 5
comments
print report bad tab
3 comments total.
0 reply
stratstrummer40 70 Jan 24, 2006 03:50 PM

not accurate at all.

0 reply
Raven91790 78 Feb 16, 2006 10:18 AM

e|------------------|-----------------------------------|
B|------------------|-----------------------------------|
G|------------------|--9--7--5--------------------------|
D|------------9-9-9-|-----------------------------------|
A|---7-7-7----------|-----------------------------------|
E|------------------|-----------------------------------|
* * * x3 x1

e|-------------------|----------------------------------|
B|-------------------|--10-8-6--------------------------|
G|----------10-10-10-|----------------------------------|
D|---7-7-7-----------|----------------------------------|
A|-------------------|----------------------------------|
E|-------------------|----------------------------------|
* * * x3 x1


Does this one sound alright?

You had the basics of it. Helps all of us get it fixed up from where you have it at. :) Thx.

0 reply
Panicboixd 30 Apr 20, 2010 07:50 PM

Listen to the song closely and play this along with it and you’ll see what I mean

e|---------------------------------------------------------------------------|
B|---------------------------------------------------------------------------|
G|------------------------------------------9--7--5--------------------------|
D|--------------10/9\10----------10/9\10-------------------------------------|
A|-----7-7-7--------------7-7-7----------------------------------------------|
E|---------------------------------------------------------------------------|
* * * * * *
e|---------------------------------------------------------------------------|
B|---------------------------------------------------------------------------|
G|---------------10/9\10---------10/9\10---14-12-10------------------------|
D|-------7-7-7-------------7-7-7---------------------------------------------|
A|---------------------------------------------------------------------------|
E|---------------------------------------------------------------------------|
* * * * * *

The slides can be pull offs or hammer ons as well which accomplishes pretty much the same sound

guest
You may want to rate the tab now too:
select rating
Wanna post a correction for this tab? Suggest correction