Oops, an error
Loading. Please wait.

We Better Learn To Hotwire A Uterus bass

version 1
version 1

Whole song

Interactive

2,067 views 3 this week
4 commentsread comments
1 2 3 4 5
x 3
add to favorites
×
Save as Personal and add changes to this tab that will be seen only by you. Learn more ›
×
You can save this tab as Personal to edit and correct it or add notes. All changes will be seen only by you. Learn more »
launch autoscroll
font size
0
reset
guitar tuner
edit
Autoscroll
slow
fast
+/-
esc
set tempo
stop
Author
Difficulty
The Fall Of Troy-We Better Learn To Hotwire A Uterus
Tabbed by: Kyle

Normal Tuning: GDAE
| /  slide up
| \  slide down
| h  hammer-on
| p  pull-off
| ~  vibrato
| +  harmonic
| x  Mute note

This is a very difficult song to play, and tab out. Have fun.

0:06
G|-4--6--4-6-4--4--6--4-6-4--2--4--2-4-2---------------|
D|----------------------------------------4--6--4-6-4--|
A|5--5--5-5-5-55--5--5-5-5-54--4--4-4-4--0--0--0-0-0---|
E|-----------------------------------------------------|

G|-4--6--4-6-4--4--6--4-6-4--2--4--2-4-2--|
D|----------------------------------------|
A|5--5--5-5-5-55--5--5-5-5-54--4--4-4-4---|
E|----------------------------------------|


0:18
G|--------------------------------------------------------------|
D|--------------------------------------------------------------|
A|------------------------------------------------585858474747--|
E|5h6h77775h6h77775h6h77775h6h77774h5h66664h5h6666--------------|x2

G|--------------------------------------------------------|
D|----9-------------9-------------8-----------------------|
A|------------5-------------5-------------4-5------8-8-8--|
E|5h77-7--7777--5h77-7--7777--4h77-7--7777---000-0--------|

G|--------------------------------------------------------------------|
D|----9-------------9-------------8-----------------------------------|
A|------------5-------------5-------------4-5------8-8-8-5------8-8-8-|
E|5h77-7--7777--5h77-7--7777--4h77-7--7777---000-0--------000-0-------|

G|---------------------------|
D|---------------------------|
A|5------8-8-8-5------8-8-8--|
E|-000-0--------000-0--------|


0:48
G|-------------------------------------------------|
D|--------335---------------------335--------------|
A|5---5-------5---5-------5---5-------5---5--------|
E|-000-000-----000-000113--000-000-----000-000113--|

G|--------------------------------------------|
D|---------------335--------------------------|
A|5-------5---------5-------5-----------------|
E|--0-0-0---0-0-0-----0-0-0---0-0-0-01010303--|x2


1:06
G|---------------------------------------------------------------|
D|-------------------------------4h6-4h6-6--5h6-5h6-6h7-7-7-7----|
A|2~/5-1~/4---------------------4---4---4-45---5---5---5-----5h7-|
E|----------5----5----5----5-------------------------------------|

G|--------------2h4442h4442h4442h444---------4-------------------------|
D|0h2222-5420-----------------------55555-75--75-----------------------|
A|------------02---------------------------------5h7775h7775h7775h777--|
E|---------------------------------------------------------------------|x2 (from 1:06)


1:49
G|----------------------------|
D|----------------------------|
A|----------------------------|
E|0~--0/5-5~--5/12-0~--0/(5)--|x4

G|-----|
D|-----|
A|-----|
E|--0--|
Suggest correction
Creating personal tab
Creating personal tab
You can edit any tab online and save it as your Personal.

You can edit, replace or remove any tab part or add personal notes – all changes will be seen only by you.

Personal tabs can be accessed anytime from any device, even offline.
Learn more »
Give kudos to tab author, rate the tab!
1 2 3 4 5
comments
print report bad tab
4 comments total. Showing first comments.
0 reply
animalaware 10 Jul 09, 2007 09:18 AM

**** yes! this song is amazing to play and the breakdown riffs are some of their most unique. and the lyrics+screaming are so intense!

0 reply
animalaware 10 Jul 09, 2007 09:23 AM

also might add that like a lot of tim's bass licks, it seems to defy conventional fingerstyle- he really justifies the use of a pick. makes it even more interesting to play without one :)

0 reply
hxc_pwn_pirate 10 Oct 14, 2007 07:45 PM

holy damn...

guest
You may want to rate the tab now too:
select rating
Wanna post a correction for this tab? Suggest correction