Oops, an error
Loading. Please wait.

We Better Learn To Hotwire A Uterus Tab

version 1
version 1

Whole song

Interactive

3,536 views 3 this week
8 commentsread comments
1 2 3 4 5
accurate
x 4
add to favorites
launch autoscroll
font size
0
reset
how to read this tab
guitar tuner
Autoscroll
slow
fast
+/-
esc
set tempo
stop
Help us to improve Ultimate-Guitar.com Take our survey!
×
Difficulty
advanced
                                            (p a l m  m u t e d )
-0h7p0h9p0h7p0h9p0h7--------------------------0-12-0-16-0-12-0-16-0-|
--------------------0h10p0-12-0-10p0-12p0-10------------------------|
--------------------------------------------------------------------|
--------------------------------------------------------------------|
--------------------------------------------------------------------|
--------------------------------------------------------------------|

                                                                            (p a l m  m u t e d )
-0h19p0h21p0h19p0h21p0h19-0h19p0h21p0h19p0h21p0h19-0h17p0h19p0h17p0h19p0h17--0-12-0-16-0-12-0-16-0-|
---------------------------------------------------------------------------------------------------|
---------------------------------------------------------------------------------------------------|
---------------------------------------------------------------------------------------------------|
---------------------------------------------------------------------------------------------------|
---------------------------------------------------------------------------------------------------|

                                                                           (p a l m  m u t e d )
-0h19p0h21p0h19p0h21p0h19-0h19p0h21p0h19p0h21p0h19-0h17p0h19p0h17p0h19p0h17--------4-------4-------|
-------------------------------------------------------------------------------5-------5-------5---|
-----------------------------------------------------------------------------2---2---2---2---2-----|
---------------------------------------------------------------------------------------------------|
---------------------------------------------------------------------------------------------------|
---------------------------------------------------------------------------------------------------|

==========================================================================
                                                                          }
-14p12p10p9h10---     -14p12p10p9h10---     -------------------------     }
--------------12-     --------------11-     -------------------------     }\
----------------- 4X  ----------------- 2X  -------------------------     } > played twice
-----------------     -----------------     -------------------------     }/
-----------------     -----------------     -5h8p5h8p5h8-4h7p4h7p4h7-     }
-----------------     -----------------     -------------------------     }
                                                                          }
==========================================================================

                                              x  x
-14p12p10p9h10---     -14p12p10p9h10---     -------------------|
--------------12-     --------------11-     -------------------|
----------------- 4X  ----------------- 2X  --------6-6-6------|
-----------------     -----------------     --44-77-4-4-4------|
-----------------     -----------------     --22-55------------|
-----------------     -----------------     -------------------|

                                             xx xx
-14p12p10p9h10---     -14p12p10p9h10---     -------------------|
--------------12-     --------------11-     -------------------|
----------------- 4X  ----------------- 2X  -777777-10-10-10---| 4X
-----------------     -----------------     -777777-10-10-10---|
-----------------     -----------------     -555555-8--8--8----|
-----------------     -----------------     -------------------|

==========================================================================

 xxx  xxx           xxx  xxx        xxx  xxx           xxx  xxx  +
----------------------------------------------------------------------|
----------------------------------------------------------------------|
-7----7----10-10-12-7----7----------7----7----10-10-12-7----7-----3~~-|
-7000-7000-10-10-12-7000-7000-3-3-5-7000-7000-10-10-12-7000-7000------|
-5000-5000-8--8--10-5000-5000-3-3-5-5000-5000-8--8--10-5000-5000------|
------------------------------1-1-3-----------------------------------|


   xxx   xxx          xxx   xxx
----------------------------------------------|
--9-----9------------9-----9------------------|
--7-777-7-777--------7-777-7-777--------------| 2X
--7-000-7-000-3-3-5--7-000-7-000-03-03-03-03--|
--5-000-5-000-3-3-5--5-000-5-000-03-03-03-03--|
--------------1-1-3---------------------5--5--|


====================================================================================

--3p2p0-5p3p2-3p0-2p0--2-2h3p2p0-0----|
-0------------------------------3-0---|
----------------------3-3-------------|
--------------------------------------|
--------------------------------------|
--------------------------------------|


--------------------------------------------------------------------------------|
---10--14-11---------------------12------------------12------------------12-----|
-----11-------------13h14-14p13----13---13h14-14p13----13---13h14-14p13----13---|
-10---------------11-----------11-----12-----------12---------------------------|
----------------------------------------------------------12-----------12-------|
--------------------------------------------------------------------------------|


-------12-12-12-12-12-|
------s---------------|
-----n----------------| help with this, the notes sound too out
----u-----------------|            of tune for me to decipher what's going on
---r------------------|
-9--------------------|


--15p12p0-------------------------------------------------------------------|
---------15p0-12p0-0-10/12-12-0-0-10/12-12-0-0-10/12-12-0-0-6/8-8-----------|
----------------------------------------------------------------------------|
----------------------------------------------------------------------------|
----------------------------------------------------------------------------|
----------------------------------------------------------------------------|


--------------------------------------------------------------------|
--10p8p0-12-10-0----------------------------------------------------|
-----------------7/9-0-0-7/9-0-0-7/9-0-0-7/9-0----------------------|
--------------------------------------------------------------------|
--------------------------------------------------------------------|
--------------------------------------------------------------------|


------12-|
-----n---| same
----u----|  run
---r-----|   issue
--7------|    here
---------|

Repeat Everything Between These = Signs
====================================================================================

----------------------------------8-7--------------------------------------------8-7-10-8-12-10--|
-5-xxxx-5--x10-xxxx-10--5-xxxx-5------8-5-8-----5-xxxx-5--x10-xxxx-10--5-xxxx-5------------------|
-x-xxxx-x--x8--xxxx-8---x-xxxx-x------------8---x-xxxx-x--x8--xxxx-8---x-xxxx-x------------------| X2
-2-xxxx-2--x6--xxxx-6---------------------------2-xxxx-2--x6--xxxx-6-----------------------------|
------------7-------7---2-xxxx-2---------------------------7-------7---2-xxxx-2------------------|
-0-xxxx-0--x0--xxxx-0---0-xxxx-0----------------0-xxxx-0--x0--xxxx-0---0-xxxx-0------------------|

       ----
       ----
       ----
end on -2--
       -2--
       -0--

I didnt tab this. From www.thefalloftroy.com/forums
Suggest correction
What's this?
You can suggest a correction to this tab. Community and Mods will review your correction and vote to approve or reject it.
comments
print report bad tab
8 comments total. Showing first comments.
0 reply
MCRrocks 501 wrote on April 18 2006, 09:37 pm

bravo man, very nice.

0 reply
matddors 544 wrote on July 9 2006, 08:28 pm

awesome

0 reply
matddors 544 wrote on July 11 2006, 08:40 pm

-14p12p10p9h10----
--------------12--

its easier this way...

-14p12------------
------15p14h15p12-

guest
You may want to rate the tab now too:
select rating
Please do not post tabs as comments. Select "correction" instead!