Oops, an error
Loading. Please wait.

We Better Learn To Hotwire A Uterus tab

version 2
version 2

Whole song

Interactive

3,228 views 1 this week
1 commentread comment
1 2 3 4 5
x 3
add to favorites
×
Save as Personal and add changes to this tab that will be seen only by you. Learn more ›
×
You can save this tab as Personal to edit and correct it or add notes. All changes will be seen only by you. Learn more »
launch autoscroll
font size
0
reset
how to read this tab
guitar tuner
edit
Autoscroll
slow
fast
+/-
esc
set tempo
stop
--------------------------
We Better Learn To Hotwire A Uterus - The Fall of Troy
--------------------------

        KEY
:::\\||--_--||//:::
h---hammer-on
p---pull-off
t---tremolo pick
b---bend
*---pinch harmonic
::://||--_--||\\:::

Tada.
We better learn to hotwire a uterus.
I'm thinking it's 100% right.
But I guess you tell me, I can't be a critic of my own work.

|--7-9-7-9-7---7-9-7-9-7---5-7-5-7-5----12--16--12--16--12---|
|------------------------------------------------------------|
|-7-7-7-7-7-7-7-7-7-7-7-7-6-6-6-6-6-6-14--14--14--14--14--14-|
|------------------------------------------------------------|
|------------------------------------------------------------|
|------------------------------------------------------------|


|---19--21--19--21--19-----19--21--19--21--19-----17--19--17--19--17---|
|----------------------------------------------------------------------|
|-19--19--19--19--19--19-19--19--19--19--19--19-18--18--18--18--18--18-|
|----------------------------------------------------------------------|
|----------------------------------------------------------------------|
|----------------------------------------------------------------------|


|---12--16--12--16--12---|
|------------------------|
|-14--14--14--14--14--14-|
|------------------------|
|------------------------|
|------------------------|


|---19--21--19--21--19-----19--21--19--21--19-----17--19--17--19--17---|
|----------------------------------------------------------------------|
|-19--19--19--19--19--19-19--19--19--19--19--19-18--18--18--18--18--18-|
|----------------------------------------------------------------------|
|----------------------------------------------------------------------|
|----------------------------------------------------------------------|


|---12--16--12--16--12---|
|------------------------|
|-14--14--14--14--14--14-|
|------------------------|
|------------------------|
|------------------------|


|---19--21--19--21--19-----19--21--19--21--19-----17--19--17--19--17---|
|----------------------------------------------------------------------|
|-19--19--19--19--19--19-19--19--19--19--19--19-18--18--18--18--18--18-|
|----------------------------------------------------------------------|
|----------------------------------------------------------------------|
|----------------------------------------------------------------------|


|------------------------|
|------------------------|
|-------13------13-------|
|---14------14------14---|
|-12--12--12--12--12--12-|
|------------------------|



|-14--------------14--------------14--------------14---------------|
|---17p15p14h15-12--17p15p14h15-12--17p15p14h15-12--17p15p14h15-12-|
|------------------------------------------------------------------|
|------------------------------------------------------------------|
|------------------------------------------------------------------|
|------------------------------------------------------------------|




|-14--------------14-------------------------------------------|
|---17p15p14h15-11--17p15p14h15-11-----------------------------|
|--------------------------------------------------------------|
|----------------------------------0h3p0h3p0h3p0-0h2p0h2p0h2p0-|
|--------------------------------------------------------------|
|--------------------------------------------------------------|



|-14--------------14--------------14--------------14---------------|
|---17p15p14h15-12--17p15p14h15-12--17p15p14h15-12--17p15p14h15-12-|
|------------------------------------------------------------------|
|------------------------------------------------------------------|
|------------------------------------------------------------------|
|------------------------------------------------------------------|




|-14--------------14-------------------------------------------|
|---17p15p14h15-11--17p15p14h15-11-----------------------------|
|--------------------------------------------------------------|
|----------------------------------0h3p0h3p0h3p0-0h2p0h2p0h2p0-|
|--------------------------------------------------------------|
|--------------------------------------------------------------|



|-14--------------14--------------14--------------14---------------|
|---17p15p14h15-12--17p15p14h15-12--17p15p14h15-12--17p15p14h15-12-|
|------------------------------------------------------------------|
|------------------------------------------------------------------|
|------------------------------------------------------------------|
|------------------------------------------------------------------|




|-14--------------14------------------------------|
|---17p15p14h15-11--17p15p14h15-11----------------|
|-------------------------------------------6-6-6-|
|----------------------------------4-4--7-7-4-4-4-|
|----------------------------------2-2--5-5-------|
|-------------------------------------------------|


|-14--------------14--------------14--------------14---------------|
|---17p15p14h15-12--17p15p14h15-12--17p15p14h15-12--17p15p14h15-12-|
|------------------------------------------------------------------|
|------------------------------------------------------------------|
|------------------------------------------------------------------|
|------------------------------------------------------------------|




|-14--------------14-----------------------------------------------|
|---17p15p14h15-11--17p15p14h15-11---------------------------------|
|---------------------------------------6-6-6-----6-6-6------6-6-6-|
|----------------------------------4477-4-4-44477-4-4-4-4477-4-4-4-|
|----------------------------------2255------2255-------2255-------|
|------------------------------------------------------------------|





|------------------------------------------------------|
|------------------------------------------------------|
|------10-10-10-7-----7-----10-10-12-7-----7-----------|
|-4477-10-10-10-7-000-7-000-10-10-12-7-000-7-000-3-3-5-|
|-2255-8--8--8--5-000-5-000-8--8--10-5-000-5-000-3-3-5-|
|------------------------------------------------1-1-3-|


|----------------------------------------|
|----------------------------------------|
|-7-----7-----10-10-12-7-----7-----------|
|-7-000-7-000-10-10-12-7-000-7-000-3-3-5-|
|-5-000-5-000-8--8--10-5-000-5-000-3-3-5-|
|----------------------------------1-1-3-|


|-------------------------------------|
|-------------------------------------|
|-7-----7-----10-10-12-7-----7-----7*-|
|-7-000-7-000-10-10-12-7-000-7-000----|
|-5-000-5-000-8--8--10-5-000-5-000----|
|-------------------------------------|


|---------------------------------------------|
|-9-----9-----------9-----9-------------------|
|-7-----7-----------7-----7-------------------|
|-7-777-7-777-3-3-5-7-777-7-777-0h3-0h3-0h5-5-|
|-5-000-5-000-3-3-5-5-000-5-000-0h3-0h3-0h5-5-|
|-------------1-1-3---------------------------|



|---------------------------------------------|
|-9-----9-----------9-----9-------------------|
|-7-----7-----------7-----7-------------------|
|-7-777-7-777-3-3-5-7-777-7-777-0h3-0h3-0h5-5-|
|-5-000-5-000-3-3-5-5-000-5-000-0h3-0h3-0h5-5-|
|-------------1-1-3---------------------------|

|---3p2p0-5p3p0-3p0-2p0--2-2h3p2p0-0--|
|-0-------------------------------3-0-|
|-----------------------3-3-----------|
|-------------------------------------|
|-------------------------------------|
|-------------------------------------|



|-------------|
|---10--14-11-|
|-----11------|
|-10----------|
|-------------|
|-------------|



|------------------------------------------------------------|
|----------------12------------------12------------------12--|
|---13h14-14p13----13---13h14-14p13----13---13h14-14p13----13|
|-11-----------11-----12-----------12------------------------|
|-----------------------------------------12-----------12----|
|------------------------------------------------------------|



|--------------------------------------10h12-12t-|
|--------------------------------10h12-----------|
|--------------------------10h12-----------------|
|-----------------10h11h12-----------------------|
|---------9h11h12--------------------------------|
|-9h11h12----------------------------------------|


|15p12p0---------------------------------------------------------|
|-------15p0-12p0-0-10/12-12-0-0-10/12-12-0-0-10/12-12-0-0-6/8-8-|
|----------------------------------------------------------------|
|----------------------------------------------------------------|
|----------------------------------------------------------------|
|----------------------------------------------------------------|


|----------------------------------------------|
|-10p8p0-12-10-0-------------------------------|
|----------------7/9-0-0-7/9-0-0-7/9-0-0-7/9-0-|
|----------------------------------------------|
|----------------------------------------------|
|----------------------------------------------|



|-------------------------------9h10h12-|
|-------------------------10h12---------|
|-----------------9h11h12---------------|
|----------7h9h10-----------------------|
|-7-7h9h10------------------------------|
|---------------------------------------|


|---3p2p0-5p3p0-3p0-2p0--2-2h3p2p0-0--|
|-0-------------------------------3-0-|
|-----------------------3-3-----------|
|-------------------------------------|
|-------------------------------------|
|-------------------------------------|



|-----------------------------------------------|
|---10--14-11---10--14-11--10--14-11--10--14-11-|
|-----11----------11---------11---------11------|
|-10----------10---------10---------10----------|
|-----------------------------------------------|
|-----------------------------------------------|



|------------------------------------------------------------|
|----------------12------------------12------------------12--|
|---13h14-14p13----13---13h14-14p13----13---13h14-14p13----13|
|-11-----------11-----12-----------12------------------------|
|-----------------------------------------12-----------12----|
|------------------------------------------------------------|



|--------------------------------------10h12-12t-|
|--------------------------------10h12-----------|
|--------------------------10h12-----------------|
|-----------------10h11h12-----------------------|
|---------9h11h12--------------------------------|
|-9h11h12----------------------------------------|


|15p12p0---------------------------------------------------------|
|-------15p0-12p0-0-10/12-12-0-0-10/12-12-0-0-10/12-12-0-0-6/8-8-|
|----------------------------------------------------------------|
|----------------------------------------------------------------|
|----------------------------------------------------------------|
|----------------------------------------------------------------|


|----------------------------------------------|
|-10p8p0-12-10-0-------------------------------|
|----------------7/9-0-0-7/9-0-0-7/9-0-0-7/9-0-|
|----------------------------------------------|
|----------------------------------------------|
|----------------------------------------------|



|-------------------------------9h10h12-|
|-------------------------10h12---------|
|-----------------9h11h12---------------|
|----------7h9h10-----------------------|
|-7-7h9h10------------------------------|
|---------------------------------------|



|--------------------------------8-7---------------------------------------8-7-10-8-12-10|
|5-xxxx-5--x10-xxxx-10--5-xxxx-5----8-5-8--5-xxxx-5--x10-xxxx-10--5-xxxx-5---------------|
|x-xxxx-x--x8--xxxx-8---x-xxxx-x---------8-x-xxxx-x--x8--xxxx-8---x-xxxx-x---------------| 
|2-xxxx-2--x6--xxxx-6----------------------2-xxxx-2--x6--xxxx-6--------------------------|
|-----------7-------7---2-xxxx-2----------------------7-------7---2-xxxx-2---------------|
|0-xxxx-0--x0--xxxx-0---0-xxxx-0-----------0-xxxx-0--x0--xxxx-0---0-xxxx-0---------------|



|--------------------------------8-7---------------------------------------8-7-10-8-12-10|
|5-xxxx-5--x10-xxxx-10--5-xxxx-5----8-5-8--5-xxxx-5--x10-xxxx-10--5-xxxx-5---------------|
|x-xxxx-x--x8--xxxx-8---x-xxxx-x---------8-x-xxxx-x--x8--xxxx-8---x-xxxx-x---------------| 
|2-xxxx-2--x6--xxxx-6----------------------2-xxxx-2--x6--xxxx-6--------------------------|
|-----------7-------7---2-xxxx-2----------------------7-------7---2-xxxx-2---------------|
|0-xxxx-0--x0--xxxx-0---0-xxxx-0-----------0-xxxx-0--x0--xxxx-0---0-xxxx-0---------------|



|---|
|---|
|---|
|-2-|
|-2-|
|-0-|
Suggest correction
Creating personal tab
Creating personal tab
You can edit any tab online and save it as your Personal.

You can edit, replace or remove any tab part or add personal notes – all changes will be seen only by you.

Personal tabs can be accessed anytime from any device, even offline.
Learn more »
Give kudos to tab author, rate the tab!
1 2 3 4 5
comments
print report bad tab
1 comment total.
0 reply
Genobee 10 Mar 08, 2008 11:30 PM

Little too much intro..

guest
You may want to rate the tab now too:
select rating
Wanna post a correction for this tab? Suggest correction