Oops, an error
Loading. Please wait.

Webs Tab

version 3
version 3

Whole song

9,423 views 18 this week
2 commentsread comments
1 2 3 4 5
excellent!
x 6
add to favorites
launch autoscroll
font size
0
reset
how to read this tab
guitar tuner
Tab Pro tools
  • play this tab
  • loop segment
  • change instrument
  • show fretboard
  • metronome
×
Best way to learn
"Webs"
Autoscroll
slow
fast
+/-
esc
set tempo
stop
Contributor
Difficulty
novice
This is the tab for Webs. Thomas plays this song in C# tuning (which is a D tuning
half step down) in the recording but i think he plays in D tuning live.
Please leave a comment on my profile for any corrections or just mail me at big_lard@live.com

FOR A VIDEO GUIDE, GO TO :
http://www.youtube.com/watch?v=mTeaKkHpvg8&playnext_from=TL&videos=Ffe9f-zz-
Mo&feature=sub AND WATCH! :)

INTRO/VERSE

C#|--------------------------------------------------------------|
G#|--------------------------------------------------------------|
E |------------0h2--0-----------------0h2--0--4--0-------0-------|
B |--------0h2----------2p0-------0h2-----------------4-----2----|
F#|---------------------------------------------------2----------|
C#|-----3----------------------3----------------------0----------|


C#|---------------------------|
G#|--------3—1p0--------------|
E |--------0-----0--2/4-------|
B |--------2------------------|
F#|--------3------------------|
C#|---------------------------|

CHORUS Total Plays: 1

C#|-----3-----5-----2-----5-----7-----------|  |--7--10--7-|  |--3-3-3-3-|
G#|-----3-----3-----3-----x-----0-----------|  |--8--11--8-|  |--3-3-3-3-|
E |-----0-----0-----0-----5-----8-----------|  |--7--10--7-|  |--0-0-0-0-|
B |-----2-----2-----x-----4-----x-----------|X1|--9--12--9-|X2|--0-2-2-0-|X1
F#|-----3-----3-----2-----5-----6-----------|  |--7--10--7-|  |--2-3-3-2-|
C#|-----------------------------------------|  |--0---0--0-|  |--3-----3-|

LICK

C#|-----------------------------10-------12-15-12-15-12-10-12-10----------|
G#|------------8/10-10b12-8-7-8----10/12-------------------------12-10----|
E |---------7-9--------------------------------------------------------12-|
B |------7h9--------------------------------------------------------------|
F#|--7h10-----------------------------------------------------------------|
C#|-----------------------------------------------------------------------|

   -----------------------------------|
   -10----10-10b12-8-7h8p7~-----------|
   ----12------------------9~-7~------|
   -----------------------------------|
   -----------------------------------|
   -----------------------------------|

Sequence of song:

Intro/Verse
Chorus
Lick
Verse
Chorus
End (G chord)
comments
print report bad tab
2 comments total.
0 reply
Michaelnovak wrote on August 2 2010, 03:14 am

i know u can at least play the intro in E standard

G|-----------------------------------4~-4p2-----
D|-------2h4-2~-----2h4-6p4-4~-------x~----4-4/6
A|----2h4--------2h4--------6~-7-4~--4~---------
E|-0~-----------0-----------0~-------0~---------

hopefully this helps for those how are too lazy to toune down liek me =)

0 reply
Michaelnovak wrote on August 2 2010, 03:15 am

G|-------------------------------------4~-4p2-----
D|-------2h4-2~-----2h4-2-6p4-4~-------x~----4-4/6
A|----2h4--------2h4----------6~-7-4~--4~---------
E|-0~-----------0-------------0~-------0~---------

sry, missed a note

I want to post or [tab]
guest
You may want to rate the tab now too:
select rating
Please do not post tabs as comments. Select "correction" instead!