Oops, an error
Loading. Please wait.

What Sound Does A Mastodon Make bass

version 1
version 1

Whole song

Interactive

853 views 1 this week
no commentswrite comment
1 2 3 4 5
3 more votes to show rating
add to favorites
×
Save as Personal and add changes to this tab that will be seen only by you. Learn more ›
×
You can save this tab as Personal to edit and correct it or add notes. All changes will be seen only by you. Learn more »
launch autoscroll
font size
0
reset
guitar tuner
edit
Autoscroll
slow
fast
+/-
esc
set tempo
stop
Difficulty
What sound Does a mastodon make?

This how I play it, and I doubt its much like how Tim plays it. However it sounds good 
to me. A couple parts haven't been worked out but just improvise them. Thanks.

PLEASE USE THIS TAB TO CREATE AN EVEN BETTER ONE!!!

Questions/if you want me to tab something/whatever/hate mail to inquisitor_taimos@hotmail.com

INTRO

Rhythm is odd
G-------------------------------------------------------------|
D-------------------------------------------------------------|
A-------------------------------------------9999-101010101010-|
E--7777777777-7777777777-10-10-10-10-888888-------------------|X3

Pre-verse

G---------------------|
D---------------------|
A---------------------|
E-3333-3333-2222-2222-|

VERSE

G-----------------------------------------|
D-----------------------------------------|
A-----------------------------------------|
E-0000-0000-0000-0000-3333-3333-2222-2222-|X4


CHORUS

G---------------------------|
D---------------------------|
A--------35-----------------|
E--00-35----780-7-5-10-8-77-|

G---------------------------|
D---------------------------|
A--------35-----------------|
E--00-35----780-44-3/-44-3/-|X2

Pre-verse

G---------------------|
D---------------------|
A---------------------|
E-3333-3333-2222-2222-|

VERSE

G-----------------------------------------|
D-----------------------------------------|
A-----------------------------------------|
E-0000-0000-0000-0000-3333-3333-2222-2222-|X4

CHORUS

G---------------------------|
D---------------------------|
A--------35-----------------|
E--00-35----780-7-5-10-8-77-|

G---------------------------|
D---------------------------|
A--------35-----------------|
E--00-35----780-44-3/-44-3/-|X2

BRIDGE


G--------------|
D--------------|
A--------------|
E--0-0-0-0-0-0-|X2

G---------------------------|
D---------------------------|
A-7 x whatever 5 x whatever-
E---------------------------X4

(quietly, moves oto the D near the end)

G------------------------------------------------|
D------------------------------------------------|
A--77-77-77-77-7777-1010-1010-1010-1010-10101010-|
E------------------------------------------------|

G------------------------------------|
D------------------------------------|
A--77-77-77-77-7777-55-55-55-55-5555-|
E------------------------------------|X8

BRIDGE PT 2

G----------------------------------------|
D----------------------------------------|
A--Mess around already used notes--------|
E----------------------------------33-22-|X2

(you make me look bad...)
G----------------------------------------|
D----------------------------------------|
A-------------------5555-5555-3333-3333--|
E-0-0-0-0-0-0-0-0-0----------------------|X2

That part is wrong, he plays something similar to what he played
before, you'll have to work it out yourself sorry. The open notes
sound ok though and i think the 2nd part of it is fine.


BRIDGE PT 3
G-------------------------------------------------------------------|
D-------------------------------------------------------------------|
A-5-7777-5-7777-5-7777-5-7777-10-12121212-10-12121212-7-9999-7-9999-|
E-------------------------------------------------------------------|

BRIDGE PT 4

(tell me that you want me...)
G-------------------------------------------------|
D-------------------------------------------------|
A-------------------------3-3-3-3-3-3-5-5-5-5-5-5-|
E-00-00-00-33-00-00-00-22-------------------------|

BRIDGE PT 5

(high guitar)

G-----------------|
D-------3-3-------|
A-3-0-5-----5-0-3-|
E-----------------|X4

G--------------------|
D--------------------|
A----------something-|
E-0-0-0-3~-----------|X8

PRE-END
G-------------------------------------|
D-------------------------------------|
A-------------------------------------|
E-55555555-33333333-22222222-33333333-|

This part also isn't right, you can hear that he plays differant notes.


ENDING
(the! docks! Held!...)
G-----------------------------|
D-----------------------------|
A---------------333333-555555-|
E-0-/-0-/-0-/0-/--------------|


thanks
army joe
x

            
            
Suggest correction
Creating personal tab
Creating personal tab
You can edit any tab online and save it as your Personal.

You can edit, replace or remove any tab part or add personal notes – all changes will be seen only by you.

Personal tabs can be accessed anytime from any device, even offline.
Learn more »
Give kudos to tab author, rate the tab!
1 2 3 4 5
comments
print report bad tab
guest
Wanna post a correction for this tab? Suggest correction