Oops, an error
Loading. Please wait.

What Sound Does A Mastodon Make bass

version 2
version 2

Whole song

Interactive

659 views 3 this week
no commentswrite comment
1 2 3 4 5
2 more votes to show rating
add to favorites
×
Save as Personal and add changes to this tab that will be seen only by you. Learn more ›
×
You can save this tab as Personal to edit and correct it or add notes. All changes will be seen only by you. Learn more »
launch autoscroll
font size
0
reset
guitar tuner
edit
Autoscroll
slow
fast
+/-
esc
set tempo
stop
The Fall of Troy
WHat Sound Does A Mastodon Make?

Tabbed by The Kailum



Intro
G---------------|
D---------------|
A-7--7--7-7-7-7-|
E---------------|X3



G------------|
D------------|
A-3--3--5--5-|
E------------l

Verse1
("WAKE UP!")
G------------------|------------|
D------------------|------------|
A-7-7--5h77-7---77-|-3--3--5--5-|
E------------------|------------|


Riff1

G--------------------------------------7---------|
D--------------------7h9h10h9-5h7-10-7---10-9-77-|
A-7-7---7h9h10p9-5h7-----------------------------|
E------------------------------------------------|


G----------------------------------------------|
D--------------------7h9h10p9-5h7--------------|
A-7-7---7h9h10p9-5h7---------------10-10---9-9-|
E----------------------------------------------|

Verse1

G------------------|------------|
D------------------|------------|
A-7-7--5h77-7---77-|-3--3--5--5-|
E------------------|------------|

Riff1

G--------------------------------------7---------|
D--------------------7h9h10h9-5h7-10-7---10-9-77-|
A-7-7---7h9h10p9-5h7-----------------------------|
E------------------------------------------------|


G----------------------------------------------|
D--------------------7h9h10p9-5h7--------------|
A-7-7---7h9h10p9-5h7---------------10-10---9-9-|
E----------------------------------------------|

Transition1
("TALK YOUR WAY OUT OF THIS")
G-------------------|-------------------|
D-------------------|-------------------|
A-7---7---7---7-7-7-|-7---7---7---7-7-7-|
E-------------------|-------------------|

CHORUS1
("TELL ME WHERE DID YOU GET THOES PRETTY LITTLE EYES!")
G-9---9---9---9-12-12-|-9---9---9---9-7-7-|
D-----------------------------------------|
A-----------------------------------------|
E-----------------------------------------|
Solo A
G--------------------|--------------------|
D---------------5555-|--------------------|
A-7---7---7---7------|-7---7---7---7-5555-|
G--------------------|--------------------|

G--------------------|--------------------|
D--------------------|--------------------|
A-555555555555555555-|-333333333333333333-|
G--------------------|--------------------|
Bridge1
G------------------|------------------------|
D------9-12-9------|-------9-12-9h12p9----9-|
A-7-7--------------|-7-7---------------12---|
E------------------|------------------------|

G--------------|
D--------------|
A-7-7-----5-5--|
E--------------|

Verse2

G-------------------------------|-----------------------------|
D-------------------------------|-----------------------------|
A-------------------------------|-7-7-77-7-7-77-7-7-77-7-7-77-|
E-7---7---7---7---7---7---7---7-|-----------------------------|

Breakdown

I REFUSE TO FIGURE THIS PART OUT DUE TO HEADACHE

Verse3
("TELL ME...")
G------------------------------------|-------------------------|
D------------------------------------|-------------------------|
A-7--7-----7--7-----7--7-----7--7----|-3-3-3-3-3-3-2-2-2-2-2-2-|
E-------0--------0--------0--------0-|-------------------------|

Bridge2

G-----------|--------------|
D-----------|--------5-----|
A-7---------|-7--5---------|
E-----------|--------------|

Bridge 3

G----------------------------|
D----------------------------|
A-------------7---7-9-10---9-|
E-0---0---0------------------|


G----------------------------|
D----------------------------|
A-------------7---5----------|
E-0---0---0------------------|



G--------------------------------------------------------------------------
D--------------------------------------------------------------------------
A-000000000000000----------------------------------------------------------
E-----------------3333333333333333333-222222222222222-33333333333333333333-

Verse4
G-------------------------------------------
D-------------------------------------------
A-------------7-777-5-555-5-555-5-555-5-555-
E-0---0---0---------------------------------


Figure out the outro pretty boaring, not a good cure for my headache, though some bud woud be good...

            
            
Suggest correction
Creating personal tab
Creating personal tab
You can edit any tab online and save it as your Personal.

You can edit, replace or remove any tab part or add personal notes – all changes will be seen only by you.

Personal tabs can be accessed anytime from any device, even offline.
Learn more »
Give kudos to tab author, rate the tab!
1 2 3 4 5
comments
print report bad tab
guest
Wanna post a correction for this tab? Suggest correction