Oops, an error
Loading. Please wait.

Your Loss Tab

358 views 21 this week
1 commentread comment
1 2 3 4 5
1 last vote to show rating
add to favorites
launch autoscroll
font size
0
reset
how to read this tab
guitar tuner
Autoscroll
slow
fast
+/-
esc
set tempo
stop
Help us to improve Ultimate-Guitar.com Take our survey!
×
Author
Difficulty
Tuning
intermediate
D# G# C# F# A# D#
Tuning - eb standard

If there are any mistakes I've made, put the correct part in the comments. Thank you. I tried my best
Video I went off of: https://www.youtube.com/watch?v=0EYiC1u7AAE


[Intro]

e|--------------------------9--|
B|--9/12-----12\9-----9\7---7--|
G|--8/11-----11\8-----8\6---6--|
D|-----------------------------| 
A|-----------------------------|
E|-----------------------------|(x16)


[Part A]

e|---------------------------------------------|
B|--9/12-----12\9-----9/14-----14\7---7/9\7p0--|
G|---------------------------------------------|
D|-11/14-----14\11---11/16-----16\9---9/11\9p0-|
A|---------------------------------------------|
E|---------------------------------------------|
              
e|--------------------------------------------------------------|
B|--------------------------------------------------------------|
G|--11----11--11----------------9-----9---9---------------9---9-|
D|--11----11--11---------------11----11--11--------------11--11-|
A|---9-----9---9---------------11----11--11--------------11--11-|
E|--10----10--10--10-10-10-10--10----10--10-10-10-10-10--10--10-|
                p.m.=========              p.m.=========  

e|------------------------------------------------------------|
B|--9/12-----12\9-----9/14-----14\7---7/9\7p0-----------------|
G|----------------------------------------------11----11--11--|
D|-11/14-----14\11---11/16-----16\9---9/11\9p0--11----11--11--|
A|-----------------------------------------------9-----9---9--|
E|----------------------------------------------10----10--10--|

e|------------12----12--|
B|----10--10----10------|
G|--13--13--13----13----|
D|----------------------|
A|----------------------|
E|----------------------|


[Part B]

e|-----------------------------------------------|
B|--12--12-----13--13-----12--12-----12h13p12p0--|
G|--12--12-----14--14-----12--12-----------------|
D|--10--10-----10--10-----10--10-----------------|
A|-----------------------------------------------|
E|-----------------------------------------------|

e|-----------------------------------------------|
B|-----------------------------------------------|
G|--12--12-----12--12-----11--11-----11h12p11p0--|
D|-----------------------------------------------|
A|--10--10-----10--10------9---9-----------------|
E|--12--12-----12--12-----10--10-----------------|


e|-----------------------------------------------|
B|--12--12-X-X-13--13-X-X-12--12-X-X-12h13p12p0--|
G|--12--12-X-X-14--14-X-X-12--12-X-X-------------|
D|--10--10-X-X-10--10-X-X-10--10-X-X-------------|
A|-----------------------------------------------|
E|-----------------------------------------------|

e|-----------------------------------------------|
B|-----------------------------------------------|
G|--12--12-X-X-12--12-X-X-11--11-X-X-11h12p11p0--|
D|---------X-X--------X-X--------X-X-------------|
A|--10--10-X-X-10--10-X-X--9---9-X-X-------------|
E|--12--12-X-X-12--12-X-X-10--10-X-X-------------|


[Repeat Part A and Part B]

e|--12----12----15----14--10---10--12---12---|
B|----12----12----12----12--8----8---0----0--|
G|------12----12----12-------11---11---9-----|
D|-------------------------------------------|
A|-------------------------------------------|
E|-------------------------------------------|

e|-----------------------------------------------|
B|--12--12-X-X-13--13-X-X-12--12-X-X-12h13p12p0--|
G|--12--12-X-X-14--14-X-X-12--12-X-X-------------|
D|--10--10-X-X-10--10-X-X-10--10-X-X-------------|
A|-----------------------------------------------|
E|-----------------------------------------------|

e|-----------------------------------------------|
B|-----------------------------------------------|
G|--12--12-X-X-12--12-X-X-11--11-X-X-11h12p11p0--|
D|---------X-X--------X-X--------X-X-------------|
A|--10--10-X-X-10--10-X-X--9---9-X-X-------------|
E|--12--12-X-X-12--12-X-X-10--10-X-X-------------|


e|--------0-------------------------------------10--|
B|----4-----4---------7-------8-----8-7----8--------|
G|------3-----3---4-----4-------7------------11-----|
D|------------------5-----5-------------------------|
A|--3-----------6-----------7-----7-----10----------|
E|--------------------------------------------------|

e|---------------------------------------------------------------------10--|
B|--3--3--3--3--3--3--7--7--7--7--7--7----------------------------8--------|
G|--4--4--4--4--4--4--4--4--4--4--4--4------------------------------11-----|
D|--------------------5--5--5--5--5--5-------------------------------------|
A|--3--3--3--3--3--3--6--6--6--6--6--6--7-7---7-7---7-7---7-7--10----------|
E|--------------------------------------0-0---0-0---0-0---0-0--------------|
                                    p.m.=====================

e|------------------------------------------------------------------------------|
B|--8----------8----------8----------8----5----------5---------7----------7-----|
G|--9----------9----------9----------9-------------------------7----------7-----|
D|--7----------7----------7----------7----7----------7---------5----------5-----|
A|-----X-X-X-X----X-X-X-X----X-X-X-X----X----X-X-X-X----X-X-X-X---X-X-X-X----X--|
E|-----0-0-0-0----0-0-0-0----0-0-0-0----0----0-0-0-0----0-0-0-0---0-0-0-0----0--|
   p.m.=======    =======    =======    =    =======    =======   =======    =
 
    t          t     t          t     t          t     t          t
e|--h12p0-h7h8-h15p0-h14p0-h7p0-h10p0-h12p0-h7h8-h15p0-h14p0-h7p0-h17p0--|
B|-----------------------------------------------------------------------|
G|-----------------------------------------------------------------------|
D|-----------------------------------------------------------------------|
A|-----------------------------------------------------------------------|
E|-----------------------------------------------------------------------|

e|-----------------------------------------------------------------------------------12-12-12--|
B|------------8-------------------8-10-8---10-10------10-12-10---10----15-15---15--------------|
G|--9-9---7-9---9---9-7-9-9---9-7------------------12---------------12------------14-----------|
D|---------------------------------------------------------------------------------------------|
A|---------------------------------------------------------------------------------------------|
E|---------------------------------------------------------------------------------------------|

e|------------------------------------------------------------|
B|------------8-------------------8-10-10-8-10-10---10-10-----|
G|--9-9---7-9---9---9-7-9-9---9-7-----------------------------|
D|------------------------------------------------------------|
A|------------------------------------------------------------|
E|------------------------------------------------------------|

e|------------------------------------------------------|
B|---10-12-10---10----15-15---15----15-17-17-15-17-17---|
G|12---------------12------------14---------------------|
D|------------------------------------------------------|
A|------------------------------------------------------|
E|------------------------------------------------------|

e|-----------------------------------------------------------------------------|
B|-----------------------------------------------------------------------------|
G|-----------------------------------------------------------------------------|
D|------------5-------------------5-7-7----------------------------------------|
A|--7-7---5-7---7---7-5-7-7---5-7-------------------2---------5-5-----5-7-7-7--|
E|----------------------------------------5-5---3-5---5---5-3-------7----------|

e|---------------------------------------------------------------------------------------|
B|---------------------------------------------------------------------------------------|
G|---------------------------------------------------------------------------------------|
D|------------5-------------------5-7-7-5-7-7--------------------------------------------|
A|--7-7---5-7---7---7-5-7-7---5-7-----------------------2---------5-5-----5-7-7-7-5-7-7--|
E|--------------------------------------------5-5---3-5---5---5-3-------7----------------|


e|--------------------------------------|
B|------------------------------4---7---|
G|--9---------------------------7b--9b--|
D|--8------------5-----5----------------|
A|--7----5-5-5-5-5--5--5--5--5----------|
E|-------0-0-0-0-3--0--3--0--0----------|
   p.m.=========    =     ==== 

e|-----------------------------------------------|
B|------------------------------4---5---7---8----|
G|--9---------------------------7b--8b--10b-11b--|
D|--8------------5-----5-------------------------|
A|--7----5-5-5-5-5--5--5--5--5-------------------|
E|-------0-0-0-0-3--0--3--0--0-------------------|
   p.m.=========    =     ==== 

       t    t      t     t          t     t            t
e|---------------------------------------------------------|
B|---------------------------------------------------------|
G|----------h7p5-------------------------------------------|
D|-----h5p0------h5h7p0-h10p0-------h12p0-h14p0------------|
A|--h3---------------------------h7----------------h9-h14--|
E|----------------------------h5----------------h7---------|

       t    t      t    t          t                t          t
e|------------------------------------------------------------------|
B|------------------------------------------------------------------|
G|----------h7p5----------------------------------------------------|
D|-----h5p0------h5h7p0---------------------------------------------|
A|--h3------------------h9p0----h5-h10/12p0----h5p0-h9p0----h5-h10--|
E|---------------------------h3-------------h3-----------h3---------|

    t       t       t        t       t       t        t       t       t
e|--h7p0h3p0-----------------h7p0h3p0-----------------h7p0h3p0-------------------------|
B|----------h7p0h3p0-----------------h7p0h3p0-----------------h7p0h3p0--------------7--|
G|------------------h9--4--------------------h9-----------------------h9--2------------|
D|-----------------------------------------------4-----------------------------2-------|
A|----------------------3-------------------------------------------------1~---2----6--|
E|-----------------------------------------------3-------------------------------------|

    t       t       t         t      t       t        t       t       t
e|--h7p0h3p0-----------------h7p0h3p0-----------------h7p0h3p0--------------------------------------|
B|----------h7p0h3p0-----------------h7p0h3p0-----------------h7p0h3p0--------------7--7--7/-19--19-|
G|------------------h9--4--------------------h9-----------------------h9--2-------------------------|
D|-----------------------------------------------4-----------------------------2--------------------|
A|----------------------3-------------------------------------------------1~---2----6--6--6/-18--18-|
E|-----------------------------------------------3--------------------------------------------------|

e|--------------------------------------|
B|------------------------------4---7---|
G|--9---------------------------7b--9b--|
D|--8------------5-----5----------------|
A|--7----5-5-5-5-5--5--5--5--5----------|
E|-------0-0-0-0-3--0--3--0--0----------|
   p.m.=========    =     ==== 

e|-----------------------------------------------|
B|------------------------------4---5---7---8----|
G|--9---------------------------7b--8b--10b-11b--|
D|--8------------5-----5-------------------------|
A|--7----5-5-5-5-5--5--5--5--5-------------------|
E|-------0-0-0-0-3--0--3--0--0-------------------|
   p.m.=========    =     ==== 


e|--------------------------------------|
B|------------------------------4---7---|
G|--9---------------------------7b--9b--|
D|--8------------5-----5----------------|
A|--7----5-5-5-5-5--5--5--5--5----------|
E|-------0-0-0-0-3--0--3--0--0----------|
   p.m.=========    =     ==== 

e|------------------------------------------------------------------------------|
B|------------------------------4---5---7---8----10---11---12-----15--17\-------|
G|--9---------------------------7b--8b--10b-11b--13b--14b--15b----18b-20b\------|
D|--8------------5-----5---------------------------------------------------2----|
A|--7----5-5-5-5-5--5--5--5--5-------------------------------------------- 2----|
E|-------0-0-0-0-3--0--3--0--0--------------------------------------------------|
   p.m.=========    =     ==== 


************************************

| h    hammer on
| p    pull off
| b    bend string up
| /    slide up
| \    slide down
| ~    vibrato
| t    right hand tap
| x    play 'note' with heavy damping 
| p.m. Palm mute

************************************
Suggest correction
Give kudos to tab author, rate the tab!
1 2 3 4 5
comments
print report bad tab
1 comment total.
0 reply
hol[ ]y tape 10 Sep 27, 2016 06:12 AM

I think I did this whole correction thing wrong so I need to try it here too. I think the first part is played

e|---|---------------------------------------------|
B|---|---------------------------------------------|
G|---|-13/16-----16\13---13/18-----18\11-11/13\11\9|
D|---|-11/14-----14\11---11/16-----16\9---9/11\9\7-|
A|-0-|--------0--------0--------0------------------|
E|---|---------------------------------------------|

It looks like he starts around 12th position in the live videos I took and on YouTube. The notes are spot on though and this really helped me get figure out the chords during the middle part.

guest
You may want to rate the tab now too:
select rating
Wanna post a correction for this tab? Suggest correction