Oops, an error
Loading. Please wait.

Devil In Disguise tab

43 views 1 this week
no commentswrite comment
1 2 3 4 5
3 more votes to show rating
add to favorites
×
Save as Personal and add changes to this tab that will be seen only by you. Learn more ›
×
You can save this tab as Personal to edit and correct it or add notes. All changes will be seen only by you. Learn more »
launch autoscroll
font size
0
reset
how to read this tab
guitar tuner
edit
Autoscroll
slow
fast
+/-
esc
set tempo
stop
Song Submitted by Daniel Davenel From The Fallen Prodigy. The tempo of this song is 195 BPM. It is written in
Drop C Tuning in the key of D minor. These are all of the Rhythm guitar parts of the song that i play. pm and
x's mean palm mutes. "Po" stands for pull off's.


[Intro]

D|----------------------------------------------------------------------------------------------------------|
A|----------------------------------------------------------------------------------------------------------|
F|----------------------------------------------------------------------------------------------------------|
C|-2-2---5-----4----------2---------5-------4----------5-------9-----7---------0-------4-----2-------2------|
G|-2-2----------------5--------------------------5-----5--------------------9--0---------------------2------|
C|-2-2------2-----2------------2-------2---------------5---5------5-----5------0----0-----0-----0-0--2------|
  pm pm    pm     pm          pm       pm                  pm     pm    pm     pm   pm    pm   pm pm

D|----------------------------------------------------------------------------------------------------------|
A|----------------------------------------------------------------------------------------------------------|
F|----------------------------------------------------------------------------------------------------------|
C|-2-2---5-----4----------2---------5-------4----------5-------9-----7---------0-------4-----2-------2------|
G|-2-2----------------5--------------------------5-----5--------------------9--0---------------------2------|
C|-2-2------2-----2------------2-------2---------------5---5------5-----5------0----0-----0-----0-0--2------|
  pm pm    pm     pm          pm       pm                  pm     pm    pm     pm   pm    pm   pm pm

D|----------------------------------------------------------------------------------------------------------|
A|----------------------------------------------------------------------------------------------------------|
F|----------------------------------------------------------------------------------------------------------|
C|-2-2---5-----4----------2---------5-------4----------5-------9-----7---------0-------4-----2-------2------|
G|-2-2----------------5--------------------------5-----5--------------------9--0---------------------2------|
C|-2-2------2-----2------------2-------2---------------5---5------5-----5------0----0-----0-----0-0--2------|
  pm pm    pm     pm          pm       pm                  pm     pm    pm     pm   pm    pm   pm pm


D|-----------------------------------------------------------------------------------------------------------|
A|-----------------------------------------------------------------------------------------------------------|
F|-----------------------------------------------------------------------------------------------------------|
C|--2---5-----4----------2---------5-------4----------5-------9-----7---------0-------4-----2----------------|
G|--2----------------5--------------------------5-----5--------------------9--0----------------0--0--0-------|
C|--2------2-----2------------2-------2---------------5---5------5-----5------0----0-----0-----0--0--0-------|
    pm    pm     pm          pm      pm                  pm     pm     pm     pm   pm    pm    pm pm pm


[Verse]

e|-----------------------------------------------------------------------------------------------------------|
B|-----------------------------------------------------------------------------------------------------------|
G|-----------------------------------------------------------------------------------------------------------|
D|2-0-2--2--2---2-0-2--2--2--2--2--5--0---2-0-2--2--2--2-0-2--2--2--2--2----5-4-2----------------------------|
A|2-0-2--2--2---2-0-2--2--2--2--2--5--0---2-0-2--2--2--2-0-2--2--2--2--2----------5--------------------------|
E|2-0-2--2--2---2-0-2--2--2--2--2--5--0---2-0-2--2--2--2-0-2--2--2--2--2-------------------------------------|
  Po     pm pm  Po     pm pm pm pm        Po     pm pm Po     pm pm pm pm

e|-----------------------------------------------------------------------------------------------------------|
B|-----------------------------------------------------------------------------------------------------------|
G|-----------------------------------------------------------------------------------------------------------|
D|2-0-2--2--2---2-0-2--2--2--2--2--5--0----5-5-5-5-5-5-5-5----7-7-7-7-7-7-7-7--------------------------------|
A|2-0-2--2--2---2-0-2--2--2--2--2--5--0----3-3-3-3-3-3-3-3----7-7-7-7-7-7-7-7--------------------------------|
E|2-0-2--2--2---2-0-2--2--2--2--2--5--0-----------------------7-7-7-7-7-7-7-7--------------------------------|
  Po     pm pm  Po     pm pm pm pm

e|-----------------------------------------------------------------------------------------------------------|
B|-----------------------------------------------------------------------------------------------------------|
G|-----------------------------------------------------------------------------------------------------------|
D|2-0-2--2--2---2-0-2--2--2--2--2--5--0---2-0-2--2--2--2-0-2--2--2--2--2----5-4-2----------------------------|
A|2-0-2--2--2---2-0-2--2--2--2--2--5--0---2-0-2--2--2--2-0-2--2--2--2--2----------5--------------------------|
E|2-0-2--2--2---2-0-2--2--2--2--2--5--0---2-0-2--2--2--2-0-2--2--2--2--2-------------------------------------|
  Po     pm pm  Po     pm pm pm pm        Po     pm pm Po     pm pm pm pm

e|-----------------------------------------------------------------------------------------------------------|
B|-----------------------------------------------------------------------------------------------------------|
G|-----------------------------------------------------------------------------------------------------------|
D|2-0-2--2--2---2-0-2--2--2--2--2--5--0----5-5-5-5-5-5-5-5----7-7-7-7-7-7-7-7--------------------------------|
A|2-0-2--2--2---2-0-2--2--2--2--2--5--0----3-3-3-3-3-3-3-3----7-7-7-7-7-7-7-7--------------------------------|
E|2-0-2--2--2---2-0-2--2--2--2--2--5--0-----------------------7-7-7-7-7-7-7-7--------------------------------|
  Po     pm pm  Po     pm pm pm pm


[Chorus]

(rhythm)

e|-----------------------------------------------------------------------------------------------------------|
B|-----------------------------------------------------------------------------------------------------------|
G|-----------------------------------------------------------------------------------------------------------|
D|-2--22---222--2--22--222--5--55--555--5-55--555-2--22--222--2--22--222----7-7-7-7-7-7-7-7-4-4-4-4-4-4-4-4--|
A|-2--22---222--2--22--222--3--33--333--3-33--333-2--22--222--2--22--222----5-5-5-5-5-5-5-5-2-2-2-2-2-2-2-2--|
E|-2--22---222--2--22--222------------------------2--22--222--2--22--222-------------------------------------|

e|-----------------------------------------------------------------------------------------------------------|
B|-----------------------------------------------------------------------------------------------------------|
G|-----------------------------------------------------------------------------------------------------------|
D|-2--22---222--2--22--222--5--55--555--5-55--555-2--22--222--2--22--222----7-7-7-7-7-7-7-7-4-4-4-4-4-4-4-4--|
A|-2--22---222--2--22--222--3--33--333--3-33--333-2--22--222--2--22--222----5-5-5-5-5-5-5-5-2-2-2-2-2-2-2-2--|
E|-2--22---222--2--22--222------------------------2--22--222--2--22--222-------------------------------------|

Chorus Lead
e|--7-0-5-3-0-3-2-0----------7-0-5-3-0-3-2-0--------8-0-5-3-0-3-2-0---------------8-0-5-3-0-3-2-3------------|
B|-----------------------------------------------------------------------------------------------------------|
G|-----------------------------------------------------------------------------------------------------------|
D|-----------------------------------------------------------------------------------------------------------|
A|-----------------------------------------------------------------------------------------------------------|
E|-----------------------------------------------------------------------------------------------------------|


[Verse 2]

D|----------------------------------------------------------------------------------------------------------|
A|----------------------------------------------------------------------------------------------------------|
F|----------------------------------------------------------------------------------------------------------|
C|-2-2---5-----4----------2---------5-------4----------5-------9-----7---------0-------4-----2-------2------|
G|-2-2----------------5--------------------------5-----5--------------------9--0---------------------2------|
C|-2-2------2-----2------------2-------2---------------5---5------5-----5------0----0-----0-----0-0--2------|
  pm pm    pm     pm          pm       pm                  pm     pm    pm     pm   pm    pm   pm pm

D|----------------------------------------------------------------------------------------------------------|
A|----------------------------------------------------------------------------------------------------------|
F|----------------------------------------------------------------------------------------------------------|
C|-2-2---5-----4----------2---------5-------4----------5-------9-----7---------0-------4-----2-------2------|
G|-2-2----------------5--------------------------5-----5--------------------9--0---------------------2------|
C|-2-2------2-----2------------2-------2---------------5---5------5-----5------0----0-----0-----0-0--2------|
  pm pm    pm     pm          pm       pm                  pm     pm    pm     pm   pm    pm   pm pm

D|----------------------------------------------------------------------------------------------------------|
A|----------------------------------------------------------------------------------------------------------|
F|----------------------------------------------------------------------------------------------------------|
C|-2-2---5-----4----------2---------5-------4----------5-------9-----7---------0-------4-----2-------2------|
G|-2-2----------------5--------------------------5-----5--------------------9--0---------------------2------|
C|-2-2------2-----2------------2-------2---------------5---5------5-----5------0----0-----0-----0-0--2------|
  pm pm    pm     pm          pm       pm                  pm     pm    pm     pm   pm    pm   pm pm

D|-----------------------------------------------------------------------------------------------------------|
A|-----------------------------------------------------------------------------------------------------------|
F|-----------------------------------------------------------------------------------------------------------|
C|--2---5-----4----------2---------5-------4----------5-------9-----7---------0-------4-----2----------------|
G|--2----------------5--------------------------5-----5--------------------9--0----------------0--0--0-------|
C|--2------2-----2------------2-------2---------------5---5------5-----5------0----0-----0-----0--0--0-------|
    pm    pm     pm          pm      pm                  pm     pm     pm     pm   pm    pm    pm pm pm


[Verse]

e|-----------------------------------------------------------------------------------------------------------|
B|-----------------------------------------------------------------------------------------------------------|
G|-----------------------------------------------------------------------------------------------------------|
D|2-0-2--2--2---2-0-2--2--2--2--2--5--0---2-0-2--2--2--2-0-2--2--2--2--2----5-4-2----------------------------|
A|2-0-2--2--2---2-0-2--2--2--2--2--5--0---2-0-2--2--2--2-0-2--2--2--2--2----------5--------------------------|
E|2-0-2--2--2---2-0-2--2--2--2--2--5--0---2-0-2--2--2--2-0-2--2--2--2--2-------------------------------------|
  Po     pm pm  Po     pm pm pm pm        Po     pm pm Po     pm pm pm pm

e|-----------------------------------------------------------------------------------------------------------|
B|-----------------------------------------------------------------------------------------------------------|
G|-----------------------------------------------------------------------------------------------------------|
D|2-0-2--2--2---2-0-2--2--2--2--2--5--0----5-5-5-5-5-5-5-5----7-7-7-7-7-7-7-7--------------------------------|
A|2-0-2--2--2---2-0-2--2--2--2--2--5--0----3-3-3-3-3-3-3-3----7-7-7-7-7-7-7-7--------------------------------|
E|2-0-2--2--2---2-0-2--2--2--2--2--5--0-----------------------7-7-7-7-7-7-7-7--------------------------------|
  Po     pm pm  Po     pm pm pm pm

e|-----------------------------------------------------------------------------------------------------------|
B|-----------------------------------------------------------------------------------------------------------|
G|-----------------------------------------------------------------------------------------------------------|
D|2-0-2--2--2---2-0-2--2--2--2--2--5--0---2-0-2--2--2--2-0-2--2--2--2--2----5-4-2----------------------------|
A|2-0-2--2--2---2-0-2--2--2--2--2--5--0---2-0-2--2--2--2-0-2--2--2--2--2----------5--------------------------|
E|2-0-2--2--2---2-0-2--2--2--2--2--5--0---2-0-2--2--2--2-0-2--2--2--2--2-------------------------------------|
  Po     pm pm  Po     pm pm pm pm        Po     pm pm Po     pm pm pm pm

e|-----------------------------------------------------------------------------------------------------------|
B|-----------------------------------------------------------------------------------------------------------|
G|-----------------------------------------------------------------------------------------------------------|
D|2-0-2--2--2---2-0-2--2--2--2--2--5--0----5-5-5-5-5-5-5-5----7-7-7-7-7-7-7-7--------------------------------|
A|2-0-2--2--2---2-0-2--2--2--2--2--5--0----3-3-3-3-3-3-3-3----7-7-7-7-7-7-7-7--------------------------------|
E|2-0-2--2--2---2-0-2--2--2--2--2--5--0-----------------------7-7-7-7-7-7-7-7--------------------------------|
  Po     pm pm  Po     pm pm pm pm


[Chorus]

(rhythm)

e|-----------------------------------------------------------------------------------------------------------|
B|-----------------------------------------------------------------------------------------------------------|
G|-----------------------------------------------------------------------------------------------------------|
D|-2--22---222--2--22--222--5--55--555--5-55--555-2--22--222--2--22--222----7-7-7-7-7-7-7-7-4-4-4-4-4-4-4-4--|
A|-2--22---222--2--22--222--3--33--333--3-33--333-2--22--222--2--22--222----5-5-5-5-5-5-5-5-2-2-2-2-2-2-2-2--|
E|-2--22---222--2--22--222------------------------2--22--222--2--22--222-------------------------------------|

e|-----------------------------------------------------------------------------------------------------------|
B|-----------------------------------------------------------------------------------------------------------|
G|-----------------------------------------------------------------------------------------------------------|
D|-2--22---222--2--22--222--5--55--555--5-55--555-2--22--222--2--22--222----7-7-7-7-7-7-7-7-4-4-4-4-4-4-4-4--|
A|-2--22---222--2--22--222--3--33--333--3-33--333-2--22--222--2--22--222----5-5-5-5-5-5-5-5-2-2-2-2-2-2-2-2--|
E|-2--22---222--2--22--222------------------------2--22--222--2--22--222-------------------------------------|

Chorus Lead
e|--7-0-5-3-0-3-2-0----------7-0-5-3-0-3-2-0--------8-0-5-3-0-3-2-0---------------8-0-5-3-0-3-2-3------------|
B|-----------------------------------------------------------------------------------------------------------|
G|-----------------------------------------------------------------------------------------------------------|
D|-----------------------------------------------------------------------------------------------------------|
A|-----------------------------------------------------------------------------------------------------------|
E|-----------------------------------------------------------------------------------------------------------|


[Buildup to solo]

e|-----------------------------------------------------------------------------------------------------------|
B|-----------------------------------------------------------------------------------------------------------|
G|-----------------------------------------------------------------------------------------------------------|
D|-22222--2--2--22222--22222--33333--3--3--33333--33333--22222--2--2--22222--22222--11111--1--1--11111--11111|
A|-22222--2--2--22222--22222--33333--3--3--33333--33333--22222--2--2--22222--22222--11111--1--1--11111--11111|
E|-22222--2--2--22222--22222--33333--3--3--33333--33333--22222--2--2--22222--22222--11111--1--1--11111--11111|
   xxxx   x  x  xxxx   xxxx   xxxx   x  x  xxxx   xxxx   xxxx   x  x  xxxx   xxxx   xxxx   x  x  xxxx   xxxx

e|-----------------------------------------------------------------------------------------------------------|
B|-----------------------------------------------------------------------------------------------------------|
G|-----------------------------------------------------------------------------------------------------------|
D|-22222--2--2--22222--22222--33333--3--3--33333--33333--22222--2--2--22222--22222--11111--1--1--11111--11111|
A|-22222--2--2--22222--22222--33333--3--3--33333--33333--22222--2--2--22222--22222--11111--1--1--11111--11111|
E|-22222--2--2--22222--22222--33333--3--3--33333--33333--22222--2--2--22222--22222--11111--1--1--11111--11111|
   xxxx   x  x  xxxx   xxxx   xxxx   x  x  xxxx   xxxx   xxxx   x  x  xxxx   xxxx   xxxx   x  x  xxxx   xxxx

solo rhythm
e|-----------------------------------------------------------------------------------------------------------|
B|-----------------------------------------------------------------------------------------------------------|
G|-----------------------------------------------------------------------------------------------------------|
D|-22222--2--2--22222--22222--33333--3--3--33333--33333--22222--2--2--22222--22222--11111--1--1--11111--11111|
A|-22222--2--2--22222--22222--33333--3--3--33333--33333--22222--2--2--22222--22222--11111--1--1--11111--11111|
E|-22222--2--2--22222--22222--33333--3--3--33333--33333--22222--2--2--22222--22222--11111--1--1--11111--11111|
   xxxx   x  x  xxxx   xxxx   xxxx   x  x  xxxx   xxxx   xxxx   x  x  xxxx   xxxx   xxxx   x  x  xxxx   xxxx

e|-----------------------------------------------------------------------------------------------------------|
B|-----------------------------------------------------------------------------------------------------------|
G|-----------------------------------------------------------------------------------------------------------|
D|-22222--2--2--22222--22222--33333--3--3--33333--33333--22222--2--2--22222--22222--11111--1--1--11111--11111|
A|-22222--2--2--22222--22222--33333--3--3--33333--33333--22222--2--2--22222--22222--11111--1--1--11111--11111|
E|-22222--2--2--22222--22222--33333--3--3--33333--33333--22222--2--2--22222--22222--11111--1--1--11111--11111|
   xxxx   x  x  xxxx   xxxx   xxxx   x  x  xxxx   xxxx   xxxx   x  x  xxxx   xxxx   xxxx   x  x  xxxx

e|-----------------------------------------------------------------------------------------------------------|
B|-----------------------------------------------------------------------------------------------------------|
G|-----------------------------------------------------------------------------------------------------------|
D|-2--2--2-2-2-2--2-2-2-2-2-2-2---5--5--5-5-5-5--5-5-5-5-5-5-5--2--2--2-2-2-2--2-2-2-2-2-2-2-----------------|
A|-2--2--2-2-2-2--2-2-2-2-2-2-2---3--3--3-3-3-3--3-3-3-3-3-3-3--2--2--2-2-2-2--2-2-2-2-2-2-2-----------------|
E|-2--2--2-2-2-2--2-2-2-2-2-2-2---------------------------------2--2--2-2-2-2--2-2-2-2-2-2-2-----------------|

e|-----------------------------------------------------------------------------------------------------------|
B|-----------------------------------------------------------------------------------------------------------|
G|-----------------------------------------------------------------------------------------------------------|
D|-7-7-7-7-7-7-7-7--4-4-4-4-4-4-4-4---2--2--2-2-2-2--2-2-2-2-2-2-2---5--5--5-5-5-5--5-5-5-5-5-5-5------------|
A|-5-5-5-5-5-5-5-5--2-2-2-2-2-2-2-2---2--2--2-2-2-2--2-2-2-2-2-2-2---3--3--3-3-3-3--3-3-3-3-3-3-3------------|
E|------------------------------------2--2--2-2-2-2--2-2-2-2-2-2-2-------------------------------------------|

e|--------------------------------------------------------------------|
B|--------------------------------------------------------------------|
G|--------------------------------------------------------------------|
D|--9-9-9-9-9-9-9-9-9-9-9-9-9-9-9-9--7-7-7-7-7-7-7-7-4-4-4-4-4-4-4-4--|
A|--7-7-7-7-7-7-7-7-7-7-7-7-7-7-7-7--5-5-5-5-5-5-5-5-2-2-2-2-2-2-2-2--|
E|--------------------------------------------------------------------|


[Breakdown]

Nothing is what you are!

e|-----------------------------------------------------------------------------------------------------------|
B|-----------------------------------------------------------------------------------------------------------|
G|-----------------------------------------------------------------------------------------------------------|
D|-22222--2--2--22222--22222--33333--3--3--33333--33333--22222--2--2--22222--22222--11111--1--1--11111--11111|
A|-22222--2--2--22222--22222--33333--3--3--33333--33333--22222--2--2--22222--22222--11111--1--1--11111--11111|
E|-22222--2--2--22222--22222--33333--3--3--33333--33333--22222--2--2--22222--22222--11111--1--1--11111--11111|
   xxxx   x  x  xxxx   xxxx   xxxx   x  x  xxxx   xxxx   xxxx   x  x  xxxx   xxxx   xxxx   x  x  xxxx   xxxx

e|-----------------------------------------------------------------------------------------------------------|
B|-----------------------------------------------------------------------------------------------------------|
G|-----------------------------------------------------------------------------------------------------------|
D|-22222--2--2--22222--22222--33333--3--3--33333--33333--22222--2--2--22222--22222--11111--1--1-1-1-1-1-1-1-1|
A|-22222--2--2--22222--22222--33333--3--3--33333--33333--22222--2--2--22222--22222--11111--1--1-1-1-1-1-1-1-1|
E|-22222--2--2--22222--22222--33333--3--3--33333--33333--22222--2--2--22222--22222--11111--1--1-1-1-1-1-1-1-1|
   xxxx   x  x  xxxx   xxxx   xxxx   x  x  xxxx   xxxx   xxxx   x  x  xxxx   xxxx   xxxx   x


[Chorus] 

(rhythm)

e|-----------------------------------------------------------------------------------------------------------|
B|-----------------------------------------------------------------------------------------------------------|
G|-----------------------------------------------------------------------------------------------------------|
D|-2--22---222--2--22--222--5--55--555--5-55--555-2--22--222--2--22--222----7-7-7-7-7-7-7-7-4-4-4-4-4-4-4-4--|
A|-2--22---222--2--22--222--3--33--333--3-33--333-2--22--222--2--22--222----5-5-5-5-5-5-5-5-2-2-2-2-2-2-2-2--|
E|-2--22---222--2--22--222------------------------2--22--222--2--22--222-------------------------------------|

e|-----------------------------------------------------------------------------------------------------------|
B|-----------------------------------------------------------------------------------------------------------|
G|-----------------------------------------------------------------------------------------------------------|
D|-2--22---222--2--22--222--5--55--555--5-55--555-2--22--222--2--22--222----7-7-7-7-7-7-7-7-4-4-4-4-4-4-4-4--|
A|-2--22---222--2--22--222--3--33--333--3-33--333-2--22--222--2--22--222----5-5-5-5-5-5-5-5-2-2-2-2-2-2-2-2--|
E|-2--22---222--2--22--222------------------------2--22--222--2--22--222-------------------------------------|

Chorus Lead
e|--7-0-5-3-0-3-2-0----------7-0-5-3-0-3-2-0--------8-0-5-3-0-3-2-0---------------8-0-5-3-0-3-2-3------------|
B|-----------------------------------------------------------------------------------------------------------|
G|-----------------------------------------------------------------------------------------------------------|
D|-----------------------------------------------------------------------------------------------------------|
A|-----------------------------------------------------------------------------------------------------------|
E|-----------------------------------------------------------------------------------------------------------|

harmony at end of song
e|--10-0-8-7-0-5-3-0---------10-0-8-7-0-5-3-0-------12-0-10-8-0-8-7-0------------12-0-10-8-0-8-7-8-----------|
B|-----------------------------------------------------------------------------------------------------------|
G|-----------------------------------------------------------------------------------------------------------|
D|-----------------------------------------------------------------------------------------------------------|
A|-----------------------------------------------------------------------------------------------------------|
E|-----------------------------------------------------------------------------------------------------------|

************************************

| x   palm mutes
| PM  Palm mute
| Po  Pull Off

************************************

            
            
Suggest correction
Creating personal tab
Creating personal tab
You can edit any tab online and save it as your Personal.

You can edit, replace or remove any tab part or add personal notes – all changes will be seen only by you.

Personal tabs can be accessed anytime from any device, even offline.
Learn more »
Give kudos to tab author, rate the tab!
1 2 3 4 5
comments
print report bad tab
guest
You may want to rate the tab now too:
select rating
Wanna post a correction for this tab? Suggest correction