Oops, an error
Loading. Please wait.

I Think I Need Help Bass Tab

22 views 1 this week
no commentswrite comment
1 2 3 4 5
2 more votes to show rating
add to favorites
launch autoscroll
font size
0
reset
guitar tuner
Autoscroll
slow
fast
+/-
esc
set tempo
stop
Help us to improve Ultimate-Guitar.com Take our survey!
×
Author
Difficulty
novice
Bass Start - 00:13


[Intro]
G|---7-6------|---7-6------|------------|--------------| (x2)
D|--------7--\|--------7--\|---5-4------|---5-4--------|
A|5-----------|5-----------|--------5--\|--------5-4-/5|
E|------------|------------|3-----------|3-------------|

[Verse 1]
G|---7-6------|---7-6------|------------|--------------| 
D|--------7--\|--------7--\|---5-4------|---5-4--------|
A|5-----------|5-----------|--------5--\|--------5-4-/5|
E|------------|------------|3-----------|3-------------|

G|---7-6------|---7-6------|------------|-------------| 
D|--------7--\|--------7--\|---5-4------|---5-4-------|
A|5-----------|5-----------|--------5--\|--------5-4-\|
E|------------|------------|3-----------|3------------|

[Chorus]
G|-------------|-------------|-------------|-------------|
D|-------------|-------------|-------------|-------------|
A|-------------|-------------|-------------|-------------|
E|2--0-2--2-2-0|2--0-2--2-2-2|0-0-0-0-0-0-0|0-0-0-0-0-0-0|

G|---------------|---------------|---------------|--------------|
D|---------------|---------------|---------------|--------------|
A|---------------|---------------|---------------|--------------|
E|2-2-2-2-2-2-2-2|2-2-2-2-2-2-2-2|0-0-0-0-0-0-0-0|5-5-5-5-5-5-5-|

[Interlude]
G|---7-6------|---7-6------|------------|--------------| (x2)
D|--------7--\|--------7--\|---5-4------|---5-4--------|
A|5-----------|5-----------|--------5--\|--------5-4-/5|
E|------------|------------|3-----------|3-------------|

[Verse 2]
G|---7-6------|---7-6------|------------|--------------| 
D|--------7--\|--------7--\|---5-4------|---5-4--------|
A|5-----------|5-----------|--------5--\|--------5-4-/5|
E|------------|------------|3-----------|3-------------|

G|---7-6------|---7-6------|------------|-------------| 
D|--------7--\|--------7--\|---5-4------|---5-4-------|
A|5-----------|5-----------|--------5--\|--------5-4-\|
E|------------|------------|3-----------|3------------|

[Chorus]
G|-------------|-------------|---------------|---------------|
D|-------------|-------------|---------------|---------------|
A|-------------|-------------|---------------|---------------|
E|2--0-2--2-2-0|2--0-2--2-2-2|0-0-0-0-0-0-0-0|0-0-0-0-0-0-0-0|

G|-------------|-------------|---------------|---------------|
D|-------------|-------------|---------------|---------------|
A|-------------|-------------|---------------|---------------|
E|2--0-2--2-2-0|2--0-2--2-2-2|0-0-0-0-0-0-0-0|5-5-5-5-5-5-5-5|

[Bridge]
G|-------------|-------------|-------------|-------------|
D|-------------|-------------|-------------|-------------|
A|-------------|-------------|7--7-7--7-7-7|6--6-6--6-6-6|
E|7--7-7--7-7-7|6--6-6--6-6-6|-------------|-------------|

G|-------------|-------------|-------------|-------------|
D|-------------|-------------|-------------|-------------|
A|-------------|-------------|7--7-7--7-7-7|6--6-6--6-6-6|
E|7--0-7--7-7-7|6--6-6--6-6-6|-------------|-------------|

[Interlude]
G|---7-6------|---7-6------|------------|--------------| 
D|--------7--\|--------7--\|---5-4------|---5-4--------|
A|5-----------|5-----------|--------5--\|--------5-4-/5|
E|------------|------------|3-----------|3-------------|

G|---7-6------|---7-6------|------------|-------------| 
D|--------7--\|--------7--\|---5-4------|---5-4-------|
A|5-----------|5-----------|--------5--\|--------5-4-\|
E|------------|------------|3-----------|3------------|

[Chorus]
G|-------------|-------------|---------------|---------------|
D|-------------|-------------|---------------|---------------|
A|-------------|-------------|---------------|---------------|
E|2--0-2--2-2-0|2--0-2--2-2-2|0-0-0-0-0-0-0-0|0-0-0-0-0-0-0-0|

G|---------------|---------------|---------------|--------------|
D|---------------|---------------|---------------|--------------|
A|---------------|---------------|---------------|--------------|
E|2-2-2-2-2-2-2-2|2-2-2-2-2-2-2-2|0-0-0-0-0-0-0-0|5-5-5-5-5-5-5-|

[Outro]
G|-------------|-------------|-------------|-------------|
D|-------------|-------------|-------------|-------------|
A|-------------|-------------|7--7-7--7-7-7|6--6-6--6-6-6|
E|7--7-7--7-7-7|6--6-6--6-6-6|-------------|-------------|

G|-------------|-------------|-------------|--------------|
D|-------------|-------------|-------------|--------------|
A|-------------|-------------|7----7--7-7-7|6--6--6--6--6-|
E|7--0-7--7-7-7|6--6-6--6-6-6|---7---------|--------------|



******************************

| / slide up
| \ slide down

******************************
Suggest correction
Give kudos to tab author, rate the tab!
1 2 3 4 5
comments
print report bad tab
guest
You may want to rate the tab now too:
select rating
Wanna post a correction for this tab? Suggest correction