Oops, an error
Loading. Please wait.

Phew Wow Bass Tab

13 views 1 this week
no commentswrite comment
1 2 3 4 5
3 more votes to show rating
add to favorites
launch autoscroll
font size
0
reset
guitar tuner
Autoscroll
slow
fast
+/-
esc
set tempo
stop
Help us to improve Ultimate-Guitar.com Take our survey!
×
Author
Difficulty
novice
[Intro]

G|---------------|------------------|------------------|--------------| (x2)
D|------5-7-5----|------------------|------------------|--5-----------|
A|--3---------7--|--8--8-7-7-7-7-5--|--8--8-5-5-5-5-5--|-----8--7--5--|
E|---------------|------------------|------------------|--------------|


[Verse 1]

G|----------|-----------------|------------------|------------------|
D|-----5----|------5----------|------------------|------------------|
A|----------|-----------------|--------5--5-5----|--3-3-3-5--5-5-5--|
E|--3----3--|-0-3----3--3--3--|--5-5-5--------5--|------------------|


G|----------|-----------------|------------------|----------------|
D|-----5----|------5----------|------------------|----------------|
A|----------|-----------------|--------5--5-5----|--3-3-3-5--5-6--|
E|--3----3--|-0-3----3--3--3--|--5-5-5--------5--|----------------|


G|--------------|---------------|------------------|----------------------|
D|--------------|---------------|------------------|----------------------|
A|--7--7--7--7--|--7--7--7--7/--|--12--12--12--12--|--12-10----10-12-10\--|
E|--------------|---------------|------------------|--------12------------|


G|--------------|---------------|--------------------|-------------------|
D|--------------|---------------|--------------------|-------------------|
A|--7--7--7--7--|--7--7--7--7/--|--10--x-10-----10/--|--12--x-12--10-----|
E|--------------|---------------|------------10------|---------------12--|


[Chorus]

G|-------------------|-------------------|-------------------|-------------------|
D|-------------------|-------------------|-------------------|--7-7-7-7-7-5------|
A|--5-5-5-5-5-5-5-5--|-------------------|--5-5-5-5-5-5-5-5--|--------------7-4--|
E|-------------------|--5-5-5-5-5-5-5-5--|-------------------|-------------------|


G|-------------------|-------------------|-------------------|-----------------|
D|-------------------|-------------------|-------------------|-----------------|
A|--5-5-5-5-5-5-5-5--|-------------------|--5-5-5-5-5-5-5-5--|--8-8-8-7-7-7-5--|
E|-------------------|--5-5-5-5-5-5-5-5--|-------------------|-----------------|


[Intro repeat]

G|---------------|------------------|------------------|--------------| (x2)
D|------5-7-5----|------------------|------------------|--5-----------|
A|--3---------7--|--8--8-7-7-7-7-5--|--8--8-5-5-5-5-5--|-----8--7--5--|
E|---------------|------------------|------------------|--------------|


[Verse 2]

G|----------|-----------------|------------------|-----------------|
D|-----5----|------5----------|------------------|-----------------|
A|----------|-----------------|--------5--5-5----|--3--x-5--5-5-5--|
E|--3----3--|-0-3----3--3--3--|--5-5-5--------5--|-----------------|


G|----------|-----------------|------------------|---------------|
D|-----5----|------5----------|------------------|---------------|
A|----------|-----------------|--------5--5-5----|--3--x-5--5-6--|
E|--3----3--|-0-3----3--3--3--|--5-5-5--------5--|---------------|


G|--------------|---------------|------------------|----------------------|
D|--------------|---------------|------------------|----------------------|
A|--7--7--7--7--|--7--7--7--7/--|--12--12--12--12--|--12-10----10-12-10\--|
E|--------------|---------------|------------------|--------12------------|


G|--------------|---------------|--------------------|-------------------|
D|--------------|---------------|--------------------|-------------------|
A|--7--7--7--7--|--7--7--7--7/--|--10--x-10-----10/--|--12--x-12--10-----|
E|--------------|---------------|------------10------|---------------12--|


[Chorus]

G|-------------------|-------------------|-------------------|-------------------|
D|-------------------|-------------------|-------------------|--7-7-x-7-7-5------|
A|--5-5-5-5-5-5-5-5--|-------------------|--5-5-5-5-5-5-5-5--|--------------7-4--|
E|-------------------|--5-5-5-5-5-5-5-5--|-------------------|-------------------|


G|-------------------|-------------------|-------------------|-----------------|
D|-------------------|-------------------|-------------------|-----------------|
A|--5-5-5-5-5-5-5-5--|-------------------|--5-5-5-5-5-5-5-5--|--8-8-8-7-7-7-5--|
E|-------------------|--5-5-5-5-5-5-5-5--|-------------------|-----------------|


[Instrumental]

G|---------------|----------7--|--------|--------|--------|--------|--------|--------|
D|-------5--5-2--|--3--3-2--5--|-----5--|-----5--|-----5--|-----5--|-----5--|-----5--|
A|--3--3---------|-------------|--------|--------|--------|--------|--------|--------|
E|---------------|-------------|--3-----|--3-----|--3-----|--3-----|--3-----|--3-----|


[Verse 3]

G|--------------|--------------|-----------2-0------------|
D|-----0--2--5--|--4--2--------|-----1--4--------4--2--0--|
A|--3-----------|--------5--0--|--2-----------------------|
E|--------------|--------------|--------------------------|


G|--------------|--------------|-----------2-0---2--4-----|
D|-----0--2--5--|--4--2--------|-----1--4--------------4--|
A|--3-----------|--------5--0--|--2-----------------------|
E|--------------|--------------|--------------------------|


G|--------------|-----------5--|--4--2--0-----------------|
D|-----0--2--5--|--4--2--0-----|-----------4--2--0--------|
A|--3-----------|--------------|--------------------2-----|
E|--------------|--------------|-----------------------0--|


G|--------------|--------------|---------|---------|----------|------12-----12\--|
D|-----0--2-----|--0--2--4--0--|--1---1--|--4---4--|--/7---7--|--/10-----10------|
A|--3--------3--|--------------|---------|---------|----------|------------------|
E|--------------|--------------|---------|---------|----------|------------------|


[Intro repeat]

G|---------------|------------------|------------------|--------------| (x2)
D|------5-7-5----|------------------|------------------|--5-----------|
A|--3---------7--|--8--8-7-7-7-7-5--|--8--8-5-5-5-5-5--|-----8--7--5--|
E|---------------|------------------|------------------|--------------|


[Verse 4]

G|----------|----------|------------------|------------------|
D|-----5----|-----5----|------------------|------------------|
A|----------|-------2--|--------5--5-5----|--3-3-3-5--5-5-5--|
E|--3----3--|--3-------|--5-5-5--------5--|------------------|


G|----------|-----------|------------------|----------------|
D|-----5----|------5----|------------------|----------------|
A|----------|--------2--|--------5--5-5----|--3-3-3-5--5-6--|
E|--3----3--|-0-3-------|--5-5-5--------5--|----------------|


G|--------------|---------------|------------------|----------------------|
D|--------------|---------------|------------------|----------------------|
A|--7--7--7--7--|--7--7--7--7/--|--12--12--12--12--|--12-10----10-12-10\--|
E|--------------|---------------|------------------|--------12------------|


G|--------------|---------------|--------------------|-------------------|
D|--------------|---------------|--------------------|------/16---14-----|
A|--7--7--7--7--|--7--7--7--7/--|--10--x-10-----10/--|--12-----------16--|
E|--------------|---------------|------------10------|-------------------|


[Chorus]

G|-------------------|-------------------|-------------------|-------------------| (x3)
D|-------------------|-------------------|-------------------|--7-7-7-7-7-5------|
A|--5-5-5-5-5-5-5-5--|-------------------|--5-5-5-5-5-5-5-5--|--------------7-4--|
E|-------------------|--5-5-5-5-5-5-5-5--|-------------------|-------------------|


G|-------------------|-------------------|-------------------|-----------------|
D|-------------------|-------------------|-------------------|-----------------|
A|--5-5-5-5-5-5-5-5--|-------------------|--5-5-5-5-5-5-5-5--|--8-8-8-7-7-7-5--|
E|-------------------|--5-5-5-5-5-5-5-5--|-------------------|-----------------|


[Outro]

G|---------------|----------|
D|------5-7-5----|----------|
A|--3---------7--|--8--8----|
E|---------------|-------8--|



***********************

| /   slide up
| \   slide down
| x   dead note

***********************

in regular sequence!
Suggest correction
Give kudos to tab author, rate the tab!
1 2 3 4 5
comments
print report bad tab
guest
You may want to rate the tab now too:
select rating
Wanna post a correction for this tab? Suggest correction