Oops, an error
Loading. Please wait.

Like Knives bass

version 4
version 4

Whole song

Interactive

237 views 1 this week
no commentswrite comment
1 2 3 4 5
1 last vote to show rating
add to favorites
×
Save as Personal and add changes to this tab that will be seen only by you. Learn more ›
×
You can save this tab as Personal to edit and correct it or add notes. All changes will be seen only by you. Learn more »
launch autoscroll
font size
0
reset
guitar tuner
edit
Autoscroll
slow
fast
+/-
esc
set tempo
stop
Author
Difficulty
    _______________
   / The Fashion  /
  / Like Knives  /
 / The Fashion  /
/______________/

*****************************************************************************
 Also, check out my guitar tab or my full guitar pro tab of this song:
 www.ultimate-guitar.com/tabs/t/the_fashion/like_knives_ver2_tab.htm
 www.ultimate-guitar.com/tabs/t/the_fashion/like_knives_ver2_guitar_pro.htm
*****************************************************************************

The bass plays the same rhythm all the way through the song.


 Intro:
rest for 4 bars, then hold this note for 4 bars:

|-----------------|-----------------|-----------------|-----------------|
|-----------------|-----------------|-----------------|-----------------|
|-4---------------|-(4)-------------|-(4)-------------|-(4)-------------|
|-----------------|-----------------|-----------------|-----------------|



 Chorus (instrumental):

|-----------------|-----------------|-----------------|----------------------|
|-----------------|-----------------|-----------------|----------------------|
|---4-4---4--4--4-|---7-7---7--7--7-|---9-9---9--9--9-|---12-12---12--12--12-|
|-----------------|-----------------|-----------------|----------------------|

|-----------------|-----------------|-----------------|-----------------|
|-----------------|-----------------|-----------------|-----------------|
|---4-4---4--4--4-|---7-7---7--7--7-|---9-9---9--9--9-|-----------------|
|-----------------|-----------------|-----------------|---5-5---5--5--5-|



 1. Verse:
                                                                           4x
||------------------|-----------------|-----------------|------------------||
||o-----------------|-----------------|-----------------|---4-4---4--4--4-o||
||o---4-4---4--4--4-|---4-4---4--4--4-|-----------------|-----------------o||
||------------------|-----------------|---5-5---5--5--5-|------------------||



 Chorus (a capella): rest for 8 bars



 2. Verse:
(For this verse only, add some sort of overdrive/synth.)
                                                                           4x
||------6---6--6----|-----6---6--6----|-----------------|-----11-11 -11----||
||o-----------------|-----------------|-----7---7--7----|-----------------o||
||o---4---4---4---4-|---4---4---4---4-|-----------------|---9---9-------9-o||
||------------------|-----------------|---5---5---5---5-|------------------||



 2x Chorus:
                                                                           4x
||------------------|-----------------|-----------------|------------------||
||o-----------------|-----------------|-----------------|-----------------o||
||o-----------------|-----------------|---7-7---7--7--7-|---9-9---9--9--9-o||
||----5-5---5--5--5-|---7-7---7--7--7-|-----------------|------------------||



 Breakdown: rest for 4 bars


 Breakdown-Chorus: rest for 2 x 4 bars



 4x Chorus:
                                                                           8x
||------------------|-----------------|-----------------|------------------||
||o-----------------|-----------------|-----------------|-----------------o||
||o-----------------|-----------------|---7-7---7--7--7-|---9-9---9--9--9-o||
||----5-5---5--5--5-|---7-7---7--7--7-|-----------------|------------------||




------------------------------------------------------------------------------
 22nd /May /10
 Just mail me at Maitinin@gmail.com with questions, comments and corrections!
------------------------------------------------------------------------------



 " Maitinin writing here - the author of this tab.

   The past 11 years, I have generated 10,318,000 views and 815 top-rated tabs for this site.
   If you want to support an eager contributor like me, check out my own site:


   _____  http://www.PlayLikeTheGreats.com  _____


   Here I will continue to upload and improve my transcriptions.

   Best regards,
   Maitinin

   July, 2015 "

            
            
Suggest correction
Creating personal tab
Creating personal tab
You can edit any tab online and save it as your Personal.

You can edit, replace or remove any tab part or add personal notes – all changes will be seen only by you.

Personal tabs can be accessed anytime from any device, even offline.
Learn more »
Give kudos to tab author, rate the tab!
1 2 3 4 5
comments
print report bad tab
guest
You may want to rate the tab now too:
select rating
Wanna post a correction for this tab? Suggest correction