Oops, an error
Loading. Please wait.

Foundations Cracked Tab

version 2
version 2

Whole song

442 views 1 this week
no commentswrite comment
1 2 3 4 5
2 more votes to show rating
add to favorites
launch autoscroll
font size
0
reset
how to read this tab
guitar tuner
Autoscroll
slow
fast
+/-
esc
set tempo
stop
Help us to improve Ultimate-Guitar.com Take our survey!
×
Author
Difficulty
intermediate
Foundation's Cracked by The Features
Tabbed by Greg Wallace / rockpaperlizards@yahoo.com


Chords used (low to high):

F#: 244322
D#min: X68876
B: x24442
Bb: x13331
D#min7: xx8879
--------------------------------------------

I build my thoughts from the ground...

F# - D#min - B - F#

But the wind will blow...             mi-i-i-i-i-ind

Bb                                    D#min

                                    If you have the dexterity for it, you
                                    can accompany the bass line with your
                                    index finger while supporting the D#min
                                    chord:

                                    e|--6--------------|
                                    B|--7--7--7--7--7--|
                                    G|--8--8--8--8--8--|
                                    D|--8--8--8--8--8--|
                                    A|--6--5--4--X--X--|
                                    E|-----------8--7--|


'Oh boy you better beware' riff:

e|-----6-------6-----|
B|---7---7---7---7---|
G|-8-------8-------8-| ~ and so on
D|-------------------|
A|-------------------|
E|-------------------|


'Foundations cracked' 2nd chorus riff:

D#min7 chord

e|---9-------------9-----------------------|
B|---7----------------11--7----------------|
G|---8-----------------------10--7---------|
D|---8------------------------------9--8---|
A|-----------------------------------------|
E|-----------------------------------------|


Solo:

e|----------------------------------------------------------------------|
B|--------------------14--12--------------------------------------------|
G|--13br11-------11----------13br11------------------11-----------------|
D|--------12h13----13---------------13------11--13------13--------------|
A|--------------------------------------14----------------13------------|
E|----------------------------------------------------------------------|


e|----------------------------------------------------------------------|
B|--------------------14--12--------------------------------------------|
G|--13br11-------11----------13br11------------------11-----------------|
D|--------12h13----13---------------13------11--13------13--------------|
A|--------------------------------------14----------------13\9----------|
E|----------------------------------------------------------------------|


| /  slide up
| \  slide down
| h  hammer-on
| p  pull-off
| ~  vibrato
| +  harmonic
| x  Mute note
===============================================================================
Suggest correction
Give kudos to tab author, rate the tab!
1 2 3 4 5
comments
print report bad tab
guest
You may want to rate the tab now too:
select rating
Wanna post a correction for this tab? Suggest correction