Oops, an error
Loading. Please wait.

How It Starts Tab

1,562 views 3 this week
no commentswrite comment
1 2 3 4 5
excellent!
x 5
add to favorites
launch autoscroll
font size
0
reset
how to read this tab
guitar tuner
Tab Pro tools
  • play this tab
  • loop segment
  • change instrument
  • show fretboard
  • metronome
×
Best way to learn
"How It Starts"
Autoscroll
slow
fast
+/-
esc
set tempo
stop
Contributor
Difficulty
intermediate
Artist: The features 
Song: How It Starts
Album: Wilderness



00:09 - 00:37   (REPEAT 01:20 - 01:38)
e|----------------------------------------------------|
B|----------------------------------------------------|
G|------8-------8---------8-------8-------------------|
D|----8---8---8---8-----8---8---8---8-----------------|
A|--6-------6-------6-6-------6-------6---------------|
E|----------------------------------------------------|


00:37 - 00:44   (REPEAT 01:38 - 01:47)
e|----------------------------------------------------|
B|----------------------------------------------------|
G|----------------------------------------------------|
D|--6-------------------------------------------------|
A|--6-------------------------------------------------|
E|--4-------------------------------------------------|


00:45 - 00:53   (REPEAT 01:47 - 01:55)
e|----------------------------------------------------|
B|----------------------------------------------------|
G|------8-------8---------8-------8-------------------|
D|----8---8---8---8-----8---8---8---8-----------------|
A|--6-------6-------6-6-------6-------6---------------|
E|----------------------------------------------------|



00:53 - 01:09   (REPEAT 01:56 - 02:10)
e|------------------------------------------6----------|
B|------------------------------------------6----------|
G|------------------------------------------7----------|
D|------------------8-8-8---8-8-8---X3------8---X9-----|
A|--4-4-4---4-4-4---6-6-6---6-6-6-----------8----------|
E|--2-2-2---2-2-2---------------------------6----------|


01:11 - 01:20
e|--6--------------------------------------------------|
B|--7--------------------------------------------------|
G|--8--------------------------------------------------|
D|--8--------------------------------------------------|
A|--6--------------------------------------------------|
E|-----------------------------------------------------|


REAPEAT ALL ABOVE AGAIN.



02:11 - 02:35
e|--6--6--6--6-6-5-6------6--6--6-6------6--6--6--6-6-5-6--6--6--6-6------------------|
B|--7--7--7--7-7-6-7------7--7--7-7------6--6--6--6-6-5-6--6--6--6-6------------------|
G|--8--8--8--8-8-7-8------8--8--8-8-(6)--7--7--7--7-7-6-7--7--7--7-7-(6)--------------|
D|--8--8--8--8-8-7-8--X2--8--8--8-8-(6)--8--8--8--8-8-7-8--8--8--8-8-(6)--------------|
A|--6--6--6--6-6-5-6------6--6--6-6------8--8--8--8-8-7-6--8--8--8-8------------------|
E|---------------------------------------6--6--6--6-6-5-6--6--6--6-6------------------|

e|--6--6--6--6-6-5-6--6--6--6-6------6--6--6--6-6-5-6--6--6--6-6-----6--6--6--6-6-5-6-|
B|--7--7--7--7-7-6-7--7--7--7-7------6--6--6--6-6-5-6--6--6--6-6-----7--7--7--7-7-6-7-|
G|--8--8--8--8-8-7-8--8--8--8-8-(6)--7--7--7--7-7-6-7--7--7--7-7-(6)-8--8--8--8-8-7-8-|
D|--8--8--8--8-8-7-8--8--8--8-8-(6)--8--8--8--8-8-7-8--8--8--8-8-(6)-8--8--8--8-8-7-8-|
A|--6--6--6--6-6-5-6--6--6--6-6------8--8--8--8-8-7-6--8--8--8-8-----6--6--6--6-6-5-6-|
E|-----------------------------------6--6--6--6-6-5-6--6--6--6-6----------------------|



02:36 - 03:14
e|--6--------------------------------------------------|
B|--7--------------------------------------------------|
G|--8--------------------------------------------------|
D|--8--------------------------------------------------|
A|--6--------------------------------------------------|
E|-----------------------------------------------------|


03:15 - 03:18
e|--6--------------------------------------------------|
B|--6--------------------------------------------------|
G|--7--------------------------------------------------|
D|--8--X9----------------------------------------------|
A|--8--------------------------------------------------|
E|--6--------------------------------------------------|
comments
print report bad tab
I want to post or [tab]
guest
You may want to rate the tab now too:
select rating
Please do not post tabs as comments. Select "correction" instead!