Oops, an error
Loading. Please wait.

Winded Tab

27 views 1 this week
no commentswrite comment
1 2 3 4 5
please rate
add to favorites
launch autoscroll
font size
0
reset
how to read this tab
guitar tuner
Autoscroll
slow
fast
+/-
esc
set tempo
stop
Help us to improve Ultimate-Guitar.com Take our survey!
×
Author
-------------------------------------------------------------------------------
                            Winded - The Features
-------------------------------------------------------------------------------
Tabbed by: Steven Gladman
Email: stevie.gladman@ntlworld.com

Tuning: EADGBe

Intro/Verse

e|------------------------------------------|
B|------------------------------------------|
G|-9-9--9-9--8-8--6-6--4-4--4-4--4-4--4-4---|
D|-9-9--9-9--8-8--6-6--4-4--4-4--4-4--4-4---| X 6
A|-7-7--7-7--6-6--4-4--2-2--2-2--2-2--2-2---|
E|------------------------------------------|

Chorus
Played over F#
e|--------------------|
B|--------------------|
G|--8-7-8-7-8-7-8-7---|
D|--------------------|
A|--------------------|
E|--------------------|

e|-------------|
B|-------------|
G|---8--6--4---|
D|---8--6--4---| 
A|---6--4--2---|
E|-------------|

Verse
e|------------------------------------------|
B|------------------------------------------|
G|-9-9--9-9--8-8--6-6--4-4--4-4--4-4--4-4---|
D|-9-9--9-9--8-8--6-6--4-4--4-4--4-4--4-4---| X 4
A|-7-7--7-7--6-6--4-4--2-2--2-2--2-2--2-2---|
E|------------------------------------------|

Chorus


Bridge

e|-------------|
B|-------------|
G|---8--6--4---|
D|---8--6--4---| 
A|---6--4--2---|
E|-------------| X 2

e|-------------------------------------------------------------------|
B|-------------------------------------------------------------------|
G|-8-8----------4-4--8-8--------4-4--8-8----------4-4--6-6---11-11---|
D|-8-8-----6-6--4-4--8-8---6-6--4-4--8-8----6-6---4-4--6-6---11-11---|
A|-6-6-----6-6--2-2--6-6---6-6--2-2--6-6----6-6---2-2--4-4---9--9----|
E|---------4-4-------------4-4--------------4-4----------------------|

e|----------------------------------------------------|
B|----------------------------------------------------|
G|-8-8----------8-8-------4-4--8-8--------4-4---6-6---|
D|-8-8---6-6----8-8---6-6-4-4--8-8---6-6--4-4---6-6---|
A|-6-6---6-6----6-6---6-6-2-2--6-6---6-6--2-2---4-4---|
E|-------4-4----------4-4------------4-4--------------|

Chorus

e|-------------|
B|-------------|
G|---8--6--4---|
D|---8--6--4---| 
A|---6--4--2---|
E|-------------| X 4




| /  slide up
| \  slide down
| h  hammer-on
| p  pull-off
| ~  vibrato
| +  harmonic
| x  Mute note
Suggest correction
Give kudos to tab author, rate the tab!
1 2 3 4 5
comments
print report bad tab
guest
You may want to rate the tab now too:
select rating
Wanna post a correction for this tab? Suggest correction