Oops, an error
Loading. Please wait.

Never Get Me Down Tab

155 views 1 this week
no commentswrite comment
1 2 3 4 5
please rate
add to favorites
launch autoscroll
font size
0
reset
how to read this tab
guitar tuner
Tab Pro tools
  • play this tab
  • loop segment
  • change instrument
  • show fretboard
  • metronome
Autoscroll
slow
fast
+/-
esc
set tempo
stop
Contributor
Difficulty
novice
-------------------------------------------------------------------------------
                             Never Get Me Down - The Feelers
-------------------------------------------------------------------------------
Tabbed by:eboswald - Houston Texas
Email:

Tuning:Standard

Not sure I have the lyrics corret. The chord structure is correct and the
2nd guitar trills are all variations of the tab below


Pick Pattern for Intro and all verses

e|---------------------------------------------------------------------------|
B|--------2---------2----------2-----------2-------------2-------------------|
G|-----2----2----2----2-----2----2------2----2-------2-----2-----------------|
D|---------------------------------------------------------------------------|
A|--0----------0---------0----------0-------------0--------------------------|
E|---------------------------------------------------------------------------|

2nd Guitar ~trill
e|---12-----10--9--10---12---------------------------------------------------|
B|---------------------------12---10-----------------------------------------|
G|---------------------------------------------------------------------------|
D|---------------------------------------------------------------------------|
A|---------------------------------------------------------------------------|
E|---------------------------------------------------------------------------_

I wish I had your number
I think I'd call you every day
I dont want to be your other
I dreamed a dream you said you'd stay

{F#m}These confessiona are {D}not for your {A}armour
And {F#m}not your {D}weapons in a personal {A}war
It's {F#m}when the {D}interrogations have {A}said so much
I can't {F#m}stand the {D}silence any {A}more

Chorus
And {A}I will never {E}let you get me down
No {A}I will never hit the {E}ground
It's {F#m} better to have loved and lost
Than {E}never to have loved before
I {F#m} know we've heard these lines so many {E}times before
But it's the {A} truth

I got beaten by a speed
I had no time to give away
I cant remember wanting so much
It's greed, but I want you anyway

These confessiona are not for your armour
And not your weapons in a personal war
That's it, That's it,That's it,it's nt your body or your brain
It's the time you are trying to keep the score

Repeat Chorus

Bridge
{C}Oh... the {G} water
{C| On.. {G} the rain
{C} Cold comfort {G}in your words
That's {D} why your words feeze in my brain

{F} {C}
{F} {C}
{F} {C}
{F} {C}
{F} And it's in the {C} Sky
{F} and it's in the {C} sea
{F} There's so much {Em} connextion in the {F} life
{F} Between you and {Em} me
{F} There's so much {Em} connextion in the {F} life
{F} Between the universe and {Em} me

Chorus
And {A}I will never {E}let you get me down
No {A}I will never hit the {E}ground
It's {F#m} better to have loved and lost
Than {E}never to have loved before
I {F#m} know we've heard these lines so many {E}times before
But it's the {A} truth
comments
We did not receive enough feedback on this tab! Please rate:
print report bad tab
1 2 3 4 5
I want to post or [tab]
guest
You may want to rate the tab now too:
select rating
Please do not post tabs as comments. Select "correction" instead!