Oops, an error
Loading. Please wait.

Its Only Life Bass Tab

483 views 1 this week
no commentswrite comment
1 2 3 4 5
please rate
add to favorites
launch autoscroll
font size
0
reset
guitar tuner
Tab Pro tools
  • play this tab
  • loop segment
  • change instrument
  • show fretboard
  • metronome
×
Best way to learn
"Its Only Life"
Autoscroll
slow
fast
+/-
esc
set tempo
stop
Contributor
Difficulty
novice
Tabbed By : Rachel
e-mail: rvandeve@mscd.edu

Tuning: Standard

Picking pattern is indicated - there are no 33's, just quickly repeated 3's 
 
  0:00
G|---------------------|
D|---------------------| X3
A|-3-3--33--3-3--333---|
E|---------------------|


G|---------------------------------------------------------|
D|---------------2-3-2------2-3-2-----2-3-2-----2-3-2------|
A|-3-3-33-3-3-33------3-33-------3-33------3-33------3-33--|
E|---------------------------------------------------------|


  :23
G|-------0--00--------0--00----------------------------|
D|-2-3-2--------2-3-2-------2-3-2--------2-3-2---------|X4
A|--------------------------------3--33--------3-33----|
E|-----------------------------------------------------|


  :49 (The timing is a bit odd for this one, listen to the song to get it)
G|-0-2-0---0--0---0-2-0---0--0---0------------------------|
D|-------3------3-------3------3------3-2------2-3-2------|
A|----------------------------------------3-33-------3-33-|
E|--------------------------------------------------------|


  :55
G|-------0--00--------0--00----------------------------|
D|-2-3-2--------2-3-2-------2-3-2--------2-3-2---------|X2
A|--------------------------------3--33--------3-33----|
E|-----------------------------------------------------|


(Guitar Solo)
 1:09
G|-------0--00--------0--00----------------------------|
D|-2-3-2--------2-3-2-------2-3-2--------2-3-2---------|X2
A|--------------------------------3--33--------3-33----|
E|-----------------------------------------------------|


G|-0-2-0---0--0---0-2-0---0--0---0-------------------------------------|
D|-------3------3-------3------3------3-2------2-3-2------2-3-2--------|
A|----------------------------------------3-33-------3-33-------3-33---|
E|---------------------------------------------------------------------|


 1:30
G|-------0--00--------0--00----------------------------|
D|-2-3-2--------2-3-2-------2-3-2--------2-3-2---------|X2
A|--------------------------------3--33--------3-33----|
E|-----------------------------------------------------|

 1:44
G|-0-2-0---0--0---0-2-0---0--0---0------------------------|
D|-------3------3-------3------3------3-2------2-3-2------|
A|----------------------------------------3-33-------3-33-|
E|--------------------------------------------------------|


  
Keep repeating these last two sections(1:30,1:44) as marked until the end.
(1:30 X2-1:44 X1, then repeat back to 1:30 X2 etc.)
comments
We did not receive enough feedback on this tab! Please rate:
print report bad tab
1 2 3 4 5
I want to post or [tab]
guest
You may want to rate the tab now too:
select rating
Please do not post tabs as comments. Select "correction" instead!