Oops, an error
Loading. Please wait.

Original Love Tab

4,118 views 25 this week
no commentswrite comment
1 2 3 4 5
excellent!
x 6
add to favorites
launch autoscroll
font size
0
reset
how to read this tab
guitar tuner
Tab Pro tools
  • play this tab
  • loop segment
  • change instrument
  • show fretboard
  • metronome
×
Best way to learn
"Original Love"
Autoscroll
slow
fast
+/-
esc
set tempo
stop
Contributor
Artsit: The Feelies
Title: Original Love
Album: Crazy Rhythms

This is the first tab I've fully worked out.
I know it's not 100% accurate but it is 
hopefully playable.

Chords:
	EADGBe
Dm:	xx0231
Asus:	x00230
Dsus:	xx0233
Am:	x02210
Am7:	x02010
G:	320001
C:	x32010

Intro:

Dm	Dsus	Asus	Dm

   Dm                 Dsus               Asus               Dm
   
E--1------1--------|--3------3--------|--0------0--------|--1------1--------|
B-----3------3-----|-----3------3-----|-----3------3-----|-----3------3-----|
G-------2------2---|-------2------2---|-------2------2---|-------2------2---|
D--0-------0-------|--0-------0-------|--0-------0-------|--0-------0-------|
A------------------|------------------|------------------|------------------|
E------------------|------------------|------------------|------------------|

   Am                 Am7               G                 
   
E--0------0--------|--0------0--------|--3---------------|
B-----1------1-----|-----1------1-----|--0---------------|
G-------2------2---|-------0------0---|--0---------------|
D--2-------2-------|--2-------2-------|--0---------------|
A------------------|------------------|--2---------------|
E------------------|------------------|--3---------------|

Riff*:(Listen to song to get rhythm)

Dm Asus Dm	Dsus Dm Asus	Dm Asus Dm	
Dsus Dm Asus    Am Am7 Am	G

Verse 1 (play above riff* during verse):

Dm
You said no commitment
		       Am	
When I asked you for a compromise
       G
Just a compromise
Dm
Now I don't know why I ask you
                          Am
It's always such a problem
              G
Why make it a problem

Chorus:

Am          C       G             Am
  You must be waiting for things to happen
  C       G            Am
Expecting something to happen
    C       G    Am     C G
But nothing ever happens
comments
print report bad tab
I want to post or [tab]
guest
You may want to rate the tab now too:
select rating
Please do not post tabs as comments. Select "correction" instead!