Oops, an error
Loading. Please wait.

The Boy With The Perpetual Nervousness chords

301 views 3 this week
no commentswrite comment
1 2 3 4 5
1 last vote to show rating
add to favorites
×
Save as Personal and add changes to this tab that will be seen only by you. Learn more ›
×
You can save this tab as Personal to edit and correct it or add notes. All changes will be seen only by you. Learn more »
launch autoscroll
font size
0
reset
transpose
0
reset
simplify chords
display chords
guitar tuner
edit
Autoscroll
slow
fast
+/-
esc
set tempo
stop
Author
Strumming
There is no strumming pattern for this song yet. and get +5 IQ
chords used:
   Em  D   Em2   D2  Em3
e|-------------------0-------------------------------------------------------|
B|-----3----8----7---5-------------------------------------------------------|
G|-----2----9----7---4-------------------------------------------------------|
D|-2--------9----7-----------------------------------------------------------|
A|-2-------------------------------------------------------------------------|
E|-0-------------------------------------------------------------------------|

[Intro]

0:20 - 0:58:
e|-0-0-0-0-0-0-0-0-0-0-0-0-0-0-0-0-0-0-0-0-0-0-0-0-0-0-0-0-0-0-0-0-0-0-0-0-0-|
B|---------------------------------------------------------------------------|
G|---------------------------------------------------------------------------|
D|---------------------------------------------------------------------------|
A|---------------------------------------------------------------------------|
E|---------------------------------------------------------------------------|

0:59 - 1:05:
guitar 1:
e|-0-0-0-0-0-0-0-0-0-0-0-0-0-0-0-0-0-0-0-0-0-0-0-0-0-0-0-0-0-0-0-0-0-0-0-0-0-|
B|---------------------------------------------------------------------------|
G|---------------------------------------------------------------------------|
D|---------------------------------------------------------------------------|
A|---------------------------------------------------------------------------|
E|---------------------------------------------------------------------------|

guitar 2:
e|---------------------------------------------------------------------------|
B|---------------------------------------------------------------------------|
G|-4-4-4-4-4-4-4-4-4-4-4-4-4-4-4-4-4-4-4-4-4-4-4-4-4-4-4-4-4-4-4-4-4-4-2-2-0-|
D|---------------------------------------------------------------------------|
A|---------------------------------------------------------------------------|
E|---------------------------------------------------------------------------|

1:05 - 1:09:
guitar 1:
e|-0-0-0-0-0-0-0-0-0-0-0-0-0-0-0-0-0-0-0-0-0-0-0-0-0-0-0-0-0-0-0-0-0-0-0-0-0-|
B|---------------------------------------------------------------------------|
G|---------------------------------------------------------------------------|
D|---------------------------------------------------------------------------|
A|---------------------------------------------------------------------------|
E|---------------------------------------------------------------------------|

guitar 2: D 3x

D 4x

[Verse]

                                       D
There's a kid I know but not too well
                               D
He doesn't have a lot to say
                                            D
Well this boy lives right next door and he
                            D
Never has nothin' to say

Em2 D2 Em3 D2 4x
                                        D
It doesn't seem like he does anything
                                  D
He never helps out in the yard
                                        D
He lets his mother carry in groceries
                                        D
Cause he doesn't plan to work too hard


[Chorus]

    Em                                  D
The boy next door is into better things
Em                    D
As far as I can see
    Em                            D
The boy next door is into bigger things
    Em                  
The boy next door is me
D
All right

Em2 D2 15x
Em D 3x


[Verse]
                              
                                                  D
Well he's not like the boys we used to have
                               D
Not like them at all - oh no
                              D
Those ones made their parents proud
                           D
This one beats 'em all


[Chorus]

    Em                             D
The boy next door is into better things
Em                    D
As far as I can see
    Em                             D
The boy next door is into bigger things
    Em 
The boy next door is me
D
Yeah


[Outro]

3:25 - 4:15:

Em2 D2

4:15 - 4:56

guitar 1: Em2 D2

guitar 2: Em D

            
            
Suggest correction
Creating personal tab
Creating personal tab
You can edit any tab online and save it as your Personal.

You can edit, replace or remove any tab part or add personal notes – all changes will be seen only by you.

Personal tabs can be accessed anytime from any device, even offline.
Learn more »
Give kudos to tab author, rate the tab!
1 2 3 4 5
comments
print report bad tab
guest
You may want to rate the tab now too:
select rating
Wanna post a correction for this tab? Suggest correction