Oops, an error
Loading. Please wait.

Fillmy Little World bass

233 views 1 this week
no commentswrite comment
1 2 3 4 5
3 more votes to show rating
add to favorites
×
Save as Personal and add changes to this tab that will be seen only by you. Learn more ›
×
You can save this tab as Personal to edit and correct it or add notes. All changes will be seen only by you. Learn more »
launch autoscroll
font size
0
reset
guitar tuner
edit
Autoscroll
slow
fast
+/-
esc
set tempo
stop
Author
Difficulty
iv just folowed the chords it may not be brill as its my 1st

INTRO:
------------------------------------------------------------------------|
------------------------------------------------------------------------|
10-10-10-10-10-10-10----10-7-7-7---7-----5--5-5-5-5-5-5-3-3-3-5-7-7-9-9-|
---------------------10----------7---7-7---7----------------------------|
VERSE 1:
-----------------------------------------------------|
-----------------------------------------------------|
10---------------------7---------------2----------5--|
-----------------------------------------------------|
I had a dream we went away , left this city for a day

------------------------------------------------------------------|
------------------------------------------------------------------|
----------------------------3-------------------3--------5--------|
------------------------------------------------------------------|
you took me southwards on a plane and showed me Spain or somewhere

-----------------------------------------------------|
-----------------------------------------------------|
10-------------------7-------2---------------5-------|
-----------------------------------------------------|
 but in reality you're not so keen to show me anything,

----------------------------------|
----------------------------------|
------------------3--------5-9-10-|
----------------------------------|
and I thought you liked me...

(CHORUS = INTRO x2)

VERSE 2:
----------------------------------------|
----------------------------------------|
---7--------------2----------------5----|
----------------------------------------|
So what you gonna do with all this stuff,

--------------------------------------------------------|
--------------------------------------------------------|
--------------------3---------5-9-10--------------------|
--------------------------------------------------------|
piling up, filling up, taking up    You misunderstand me

---------------------------------------------------------------------------|
---------------------------------------------------------------------------|
7------2---------------5------------------------3-----------------5-9-10---|
---------------------------------------------------------------------------|
 all i wanted was some evidence that you really like me (u really liked me)

(CHORUS)

MIDDLE BIT:
----------------------------------------------------|
0---------------------------------------------------|
10-------5----9---3-------------------3---5------10-|
----------------------------------------------------|
Maybe its all too much, how come we're so messed up

--------------------------------------------|
--------------------------------------------|
----------5---9-3--------------5----9---10--|
--------------------------------------------|
maybe i'm not enough, maybe im just too much

(CHORUS REPEATED)

(NOTHING FOR OUTRO)

ANY COMMENTS/ IMPROVEMENTS EMAIL ME AT
adrian@lumbard1666.fsnet.co.uk

            
            
Suggest correction
Creating personal tab
Creating personal tab
You can edit any tab online and save it as your Personal.

You can edit, replace or remove any tab part or add personal notes – all changes will be seen only by you.

Personal tabs can be accessed anytime from any device, even offline.
Learn more »
Give kudos to tab author, rate the tab!
1 2 3 4 5
comments
print report bad tab
guest
You may want to rate the tab now too:
select rating
Wanna post a correction for this tab? Suggest correction