Oops, an error
Loading. Please wait.

Never Be Lonely bass

version 2
version 2

Whole song

Interactive

1,495 views 6 this week
1 commentread comment
1 2 3 4 5
1 last vote to show rating
add to favorites
×
Save as Personal and add changes to this tab that will be seen only by you. Learn more ›
×
You can save this tab as Personal to edit and correct it or add notes. All changes will be seen only by you. Learn more »
launch autoscroll
font size
0
reset
guitar tuner
edit
Autoscroll
slow
fast
+/-
esc
set tempo
stop
Author
Difficulty
this is out of bass guitar magazine so correct

Verse:

G --------------------------------------------------------|
D ---10---10-----------------------10---10----------------|
A ------------10-----10---------------------10-----10-----|
E ------------------------8-----------------------------8-|  x5

Chorus (00:29)

G -------10---9-----------------7-----9----------------10-|
D --------------------------------------------------------|
A ---8------------7---------5--------------7-------8------|
E --------------------------------------------------------|

G ------------------------|
D ------------------------|
A ------------------------|
E 6--6--6--6--6--6--6--6--|

"B-b-b-baby" (00:38)

G -----------------------------------------------|
D --------------8--10----------------------8-----|
A --11--11--11---------11--10--10--10--11-----10-|
E -----------------------------------------------|

G -----------------------------------------------|
D ------------------------------------------7--9-|
A --8--8--8--10--11--8--7---------7--8--10-------|
E -------------------------8--10-----------------|

G -----------------------------------------------|
D --------------8--10----------------------8-----|
A --11--11--11---------11--10--10--10--11-----10-|
E -----------------------------------------------|

G -----------------------------------------------|
D ------------------------------------------7--9-|
A --8--8--8--10--11--8--7---------7--8--10-------|
E -------------------------8--10-----------------|

(01:56)

G ----------------------------------------------|
D ---------------------------------------9--11--|
A --10--10--10-12-13-10--9-------9-10-12--------|
E -------------------------10-12----------------|

G ----------------------------------------------|
D ----------------------------------------13----|
A --12-12-12-14-15-12-11----11-14-13---13-------|
E -----------------------12----------14---------|

G -------------|
D -------------|
A --14---------|
E ----------7--|

To be honest i'm not quite sure what i'm doing so sorry if I have tabbed
it badly. Have fun anyway
Suggest correction
Creating personal tab
Creating personal tab
You can edit any tab online and save it as your Personal.

You can edit, replace or remove any tab part or add personal notes – all changes will be seen only by you.

Personal tabs can be accessed anytime from any device, even offline.
Learn more »
Give kudos to tab author, rate the tab!
1 2 3 4 5
comments
print report bad tab
1 comment total.
0 reply
BassFaceBass 10 Jun 02, 2007 09:42 AM

good

guest
You may want to rate the tab now too:
select rating
Wanna post a correction for this tab? Suggest correction