Oops, an error
Loading. Please wait.

Sewn bass

version 1
version 1

Whole song

Interactive

3,715 views 3 this week
1 commentread comment
1 2 3 4 5
x 5
add to favorites
×
Save as Personal and add changes to this tab that will be seen only by you. Learn more ›
×
You can save this tab as Personal to edit and correct it or add notes. All changes will be seen only by you. Learn more »
launch autoscroll
font size
0
reset
guitar tuner
edit
Autoscroll
slow
fast
+/-
esc
set tempo
stop
Author
Difficulty
Tuning: Standard
this is my first tab, so it will not have all the fillers between the main verse notes
T ten
E eleven
W twelve
R thirteen
F fourteen
V fifteen
S sixteen
/ slide up
\ slide down
* let ring
. cut short


danny boy, dont be afraid...
G|-------------------------------------------------------------------------|
D|---------------3-3---31-1----1---------------3-3---3---------------------|
A|--------5-5---------------------------5-5-----------3-3313--------5-5----|
E|-3-3---3-----------------------3-3---3---------------------3-3---3-------|

G|------------------------------------------------|
D|-3-3---31-1----1--------------------------------|
A|-----------------------5-5----8-8---8-----------|
E|-----------------3-3--3--------------8-8-8-8\3\-|

so give me the song and i'll sing
G|---------------------------------|
D|---------5-5-5-5-----------------|
A|-6-6-6-6---------3-3-3-3-3-3-5-5-|
E|---------------------------------|   x3

and god knows you've got me sewn
G|-----------------|
D|-----------------|
A|-6-6-6-6-6-6-6-6-|
E|-----------------|

na na na na na na na
G|--------------------------------------------------|
D|-------------3-3---31-1----1------------3-3-------|
A|--5/T-5-5---5----------------5/T-5-5---5---3-3313-|
E|-3-------------------------3----------------------|

danny boy, dont be a fool
G|-------------------------------------------------------------------------|
D|---------------3-3---31-1----1---------------3-3---3---------------------|
A|--------5-5---------------------------5-5-----------3-3313--------5-5----|
E|-3-3---3-----------------------3-3---3---------------------3-3---3-------|

G|------------------------------------------------|
D|-3-3---31-1----1--------------------------------|
A|-----------------------5-5----8-8---8-----------|
E|-----------------3-3--3--------------8-8-8-8\3\-|

so give me the song and i'll sing
G|---------------------------------|
D|---------5-5-5-5-----------------|
A|-6-6-6-6---------3-3-3-3-3-3-5-5-|
E|---------------------------------|   x3


you've got my heart in a headlock (the 2nd time he says it)
note: mute all the notes untill the second set of 3's
G|-----------------------------------------------------------------|
D|-----------------------------------------------------------------|
A|-6-6-6-6-5-5-5-5-3-3-3-3-3-3-5-5-6-6-6-6-5-5-5-5-3-3-3-3-3-3-5-5-|
E|-----------------------------------------------------------------|

yea!
G|-----------------------------------------------------------------|
D|-----------------------------------------------------------------|
A|-6-6-5-1-------1-3-3-1-3-------1-6-6-5-1-------1-3-3-1-3-------1-|
E|---------3-1-3-----------3-1-3-----------3-1-3-----------3-1-3---|

G|-----------------------------------------------------------------|
D|-----------------------------------------------------------------|
A|-6-6-5-1-------1-3-3-1-3-------1--/6---------3-3-1-3-----1-6-----|
E|---------3-1-3-----------3-1-3-------3-3-1-3---------1-3---------|

G|--------------------------------|
D|--------------------------------|
A|--/6---------3-3-1-3-1-3-1-3-6--|
E|-----3-3-1-3--------------------|

THE END
Suggest correction
Creating personal tab
Creating personal tab
You can edit any tab online and save it as your Personal.

You can edit, replace or remove any tab part or add personal notes – all changes will be seen only by you.

Personal tabs can be accessed anytime from any device, even offline.
Learn more »
comments
print report bad tab
1 comment total.
0 reply
BassistTC 10 Mar 11, 2008 12:24 PM

4 Stars cos of the missing fill ins, but I'm not gonna complain cos I couldn't do better!
Not even on my 80th tab, let alone my first.

guest
You may want to rate the tab now too:
select rating
Wanna post a correction for this tab? Suggest correction