Oops, an error
Loading. Please wait.

Its Magic Bass Tab

1 view 1 this week
no commentswrite comment
1 2 3 4 5
3 more votes to show rating
add to favorites
launch autoscroll
font size
0
reset
guitar tuner
Autoscroll
slow
fast
+/-
esc
set tempo
stop
Help us to improve Ultimate-Guitar.com Take our survey!
×
Author
Difficulty
novice
Tabbed by: 6METAL6BASSIST6
E-mail: petergriffinav@gmail.com

Tuning: EADG

G|--------------------------------|
D|--------------------------------|
A|--------------------------------|
E|--------------------------------|

G|----------------------------------------------------------------|
D|----------------------------------------------------------------|
A|----------------------------------------------------------------|
E|5-------------------------------5-------------------------------|

G|----------------------------------------------------------------|
D|----------------------------------------------------------------|
A|------------------------------------------------------------7---|
E|5-------------------------------5-------------------------------|

G|----------------------------------------------------------------|
D|7---------------7---7-----------7-------------7-7---7---7-7-----|
A|------------------------------------------------------------7---|
E|----------------------------------------------------------------|

G|----------------------------------------------------------------|
D|----------------------------------------------------------------|
A|--------------------------------------------------------7---7---|
E|5-------------5-5---5-----------5-------------5-5---5-----------|

0:18

G|----------------------------------------------------------------|
D|----------------------------------------------------------------|
A|--------------------------------------------------------7---7---|
E|5-------------5-5---5-----------5-------------5-5---5-----------|

G|----------------------------------------------------------------|
D|----------------------------------------------------------------| x2
A|--------------------------------------------------------7---7---|
E|5-------------5-5---5---------5-5-------------5-5---5-----------|

G|----------------------------------------------------------------|
D|----------------------------------------------------------------|
A|--------------------------------------------------------7---7---|
E|5-------------5-5---5-----------5-------------5-5---5-----------|

0:35

G|----------------------------------------------------------------|
D|7-------7-------7-------7-------7-------7-------7---------------|
A|------------7---------------7---------------7-------7---7---7---|
E|----------------------------------------------------------------|

G|----------------------------------------------------------------|
D|7-------7-------7-------7-------7-------7-------7-------7-------|
A|------------7---------------7---------------7---------------7---|
E|----------------------------------------------------------------|

0:44

G|----------------------------------------------------------------|
D|----------------5-------------------------------5---------------|
A|--------5---5-----------5---5-----------5---------------5---5---|
E|5-------------------------------5-------------------------------|

G|----------------------------------------------------------------|
D|----------------5-------------------------------5---------------|
A|--------5---------------5---5-----------5---------------5---5---|
E|5-------------------------------5-------------------------------|

G|----------------------------------------------------------------|
D|----------------------------------------------------------------|
A|7---7---7---7---7---7---7---7---7---7---7---7---7---------------|
E|--------------------------------------------------------10\-----|

G|----------------------------------------------------------------|
D|----------------------------------------------------------------|
A|----------------------------------------------------------------|
E|5-------------------------------------------------------12\-----|

G|----------------------------------------------------------------|
D|----------------------------------------------------------------|
A|----------------------------------------------------------------|
E|5-------------------------------5-------------------------------|

1:03

G|----------------------------------------------------------------|
D|----------------------------------------------------------------|
A|----------------------------------------------5-7-7-7---7---7---|
E|5-----------5---5---------------5-------------------------------|

G|----------------------------------------------------------------|
D|----------------------------------------------------------------|
A|--------------------------------------------------------7---7---|
E|5-------------5-5---5---------5-5-------------5-5---------------|

G|----------------------------------------------------------------|
D|----------------------------------------------------------------|
A|--------------------------------------------------------7---7---|
E|5-------------5-5---5-----------5-------------5-5---5-----------|

G|----------------------------------------------------------------|
D|----------------------------------------------------------------|
A|----------------------------------------------5-7-5---------7---|
E|5-------------5-5---5---------5-5-------------------7-----------|

1:20

G|----------------------------------------------------------------|
D|--------------------------------7-------7-------7---------------|
A|----------------------------7---------------7-------7---7---7---|
E|5-------5-----5-5---5-------------------------------------------|

G|----------------------------------------------------------------|
D|--------------------------------7-------7-------7---------------|
A|----------------------------7---------------7-------7---7---7---|
E|5---------------5-----------------------------------------------|

1:28

G|----------------------------------------------------------------|
D|----------------5-------------------------------5---------------|
A|--------5---------------5---5-----------5---------------5-------|
E|5-------------------------------5-------------------------------|

G|----------------------------------------------------------------|
D|----------------5-------------------------------5---------------|
A|--------5---------------5---------------5---------------5---5---|
E|5-------------------------------5-------------------------------|

G|----------------------------------------------------------------|
D|----------------------------------------------------------------|
A|7---7---7---7---7---7---7---7---7---7---7---7---7---5---3---2---|
E|----------------------------------------------------------------|

G|----------------------------------------------------------------|
D|----------------------------------------------------------------|
A|----------------------------------------------------------------|
E|5-------------------------------------------------------10\-----|

G|----------------------------------------------------------------|
D|----------------------------------------------------------------|
A|----------------------------------------------------------------|
E|5---------------------------------------------------------------|

1:48

G|----------------------------------------------------------------|
D|----------------------------------------------------------------|
A|----------------------------------------------------------------|
E|5-------------------------------7-------------------------------|

G|----------------------------------------------------------------|
D|--------------------------------------------7---7-5-----5---7---|
A|----------------------------------------------------7-----------|
E|5---------------5-----------5---5---5---------------------------|

G|----------------------------------------------------------------|
D|----------------------------------------------------------------|
A|----------------------------------------------------------------|
E|5-------------------------------7-------------------------------|

G|----------------------------------------------------------------|
D|----------------7---7-----------7---7-----------7---7---7---7---|
A|--------------7-------------7---------------7-------------------|
E|5---------------------------------------------------------------|

G|--------------------------------|
D|7---7---7---7---7---7---7---7---|
A|--------------------------------|
E|--------------------------------|

2:06

G|----------------------------------------------------------------|
D|----------------5---5---------------------------5---5-----------|
A|--------5-----5---------5---------------5-----5---------5-------|
E|5-----------------------------5-5---5---------------------------|

G|----------------------------------------------------------------|
D|----------------5-------------------------------5---5-------5---|
A|--------5-----5---------5---------------5-----5---------5-------|
E|5-----------------------------5-5-------------------------------|

G|----------------------------------------------------------------|
D|----------------5---5-----5---------------------5---------------|
A|--------5----5----------5---5-----------5-----5---------5-------|
E|5---5---------------------------5-------------------------------|

G|----------------------------------------------------------------|
D|----------------5---5---------------------------5---------------|
A|--------5-----5---------5---------------5-----5---------5-------|
E|5-----------------------------5-5---5-----------------------5---|

2:22

G|----------------------------------------------------------------|
D|----------------5---5---------------------------5---5-----------|
A|--------5-----5---------5---------------5-----5---------5-------|
E|5-----------------------------5-5---5---------------------------|

G|----------------------------------------------------------------|
D|----------------5---5-------------------------5-5---5---5-------|
A|--------5-----5---------5---------------5---5-------------------|
E|5---5-------------------------5-5-------------------------------|

G|----------------------------------------------------------------|
D|----------------5---5---------------------------5---5-----------|
A|--------5-----5---------5---------------5-----5---------5-------|
E|5---5-------------------------5-5---5-------------------------5-|

G|----------------------------|
D|----------------5---5-------| fades out here.
A|--------5-----5---------5---|
E|5---5-----------------------|
Suggest correction
Give kudos to tab author, rate the tab!
1 2 3 4 5
comments
print report bad tab
guest
You may want to rate the tab now too:
select rating
Wanna post a correction for this tab? Suggest correction