Oops, an error
Loading. Please wait.

And Before The First Kiss chords

82 views 1 this week
no commentswrite comment
1 2 3 4 5
3 more votes to show rating
add to favorites
×
Save as Personal and add changes to this tab that will be seen only by you. Learn more ›
×
You can save this tab as Personal to edit and correct it or add notes. All changes will be seen only by you. Learn more »
launch autoscroll
font size
0
reset
transpose
0
reset
simplify chords
display chords
guitar tuner
edit
Autoscroll
slow
fast
+/-
esc
set tempo
stop
Strumming
There is no strumming pattern for this song yet. and get +5 IQ
[Intro]
e|---------------------------0-----0-----0-----0---|
B|---3-----3-----3-----3---------------------------|
G|-0---2-0---2-0---2-0---2-----2-----2-----2-----0-| (x4)
D|-------------------------0-----0-----0-----0-----|
A|-------------------------------------------------|
E|-------------------------------------------------|

[Verses]
e|-------------------------|---0-----0-----0-----0---|
B|---3-----3-----3-----3---|-------------------------|
G|-0---2-0---2-0---2-0---2-|-----2-----2-----2-----0-| (x2)
D|-------------------------|-0-----0-----0-----0-----|
A|-------------------------|-------------------------|
E|-------------------------|-------------------------|

e|---0-----0-----0-----0---|---0-----0-----0-----0---|
B|-------------------------|-------------------------|
G|-----2-----2-----2-----2-|-----2-----2-----2-----0-| (x2)
D|-------0-----0-----0-----|-0-----0-----0-----0-----|
A|-------------------------|-------------------------|
E|-0-----------------------|-------------------------|

[Chorus]
e|---0-----0-----0-----0------0-----0-----0-----0---|
B|-----3-----3-----3-----3------3-----3-----3-----3-|
G|--------------------------------------------------| (x4)
D|-0-----0------------------------------------------|
A|-------------4-----4------2-----2-----2-----2-----|
E|--------------------------------------------------|

e|---0-----0-----0-----0------0-----0-----0-----0---|
B|--------------------------------------------------|
G|-----2-----2-----2-----2------2-----2-----2-----0-|
D|-------0-----0-----0------0-----0-----0-----0-----|
A|--------------------------------------------------|
E|-3------------------------------------------------|


[Verse 1]
         G
You were low, we were so far from home
        Dsus4
Didn't think you'd want to be alone
         G
You were low
                    Dsus4
We were so far from home
      Em
D'you wanna talk?
    Dsus4
Do you want to
      Em
D'you wanna talk?
    Dsus4
Do you want to


[Verse 2]
       G
After tears and before the first kiss
       Dsus4
I sat looking into your eyes
       G
After tears
                     Dsus4
And before the first kiss
             Em
All there'll be is this
        Dsus4
This is all there'll be
             Em
All there'll be is this
        Dsus4
This is all there'll be


[Chorus]
Dsus4  A                   Bm
   I'm going to have to put up with it
Dsus4         A                       Bm
   Settle for what is a lot less than perfect
Dsus4   A        Bm
   Stay with someone I do not love
Dsus4            A
   Whom I cannot leave
                 Bm
   That I cannot do
             G
   I am unable to
          Dsus4
   I am unable to


[Verse 3]
     G
We arrived as friends and became
  Dsus4
"More than" in less than two days
     G
We arrived
                  Dsus4
As friends and became
      Em
Twice in a row
        Dsus4
Whilst flying home
    Em
We listened to
       Dsus4
"From Silver Lake"


[Verse 4]
     G
On arriving back home it was
      Dsus4
Back home it was rainy and dark
     G
On arriving
            Dsus4
Back home it was
           Em
The small hours saw
      Dsus4
Us agree to stop
           Em
The small hours saw
      Dsus4
Us agree to stop


[Chorus]
Dsus4  A                   Bm
   I'm going to have to put up with it
Dsus4         A                       Bm
   Settle for what is a lot less than perfect
Dsus4    A        Bm
   Stay with someone I do not love
Dsus4            A
   Whom I cannot leave
                 Bm
   That I cannot do
             G
   I am unable to
          Dsus4
   I am unable to

            
            
Suggest correction
Creating personal tab
Creating personal tab
You can edit any tab online and save it as your Personal.

You can edit, replace or remove any tab part or add personal notes – all changes will be seen only by you.

Personal tabs can be accessed anytime from any device, even offline.
Learn more »
Give kudos to tab author, rate the tab!
1 2 3 4 5
comments
print report bad tab
guest
You may want to rate the tab now too:
select rating
Wanna post a correction for this tab? Suggest correction