Oops, an error
Loading. Please wait.

Couldnt Feel Safer bass

40 views 6 this week
no commentswrite comment
1 2 3 4 5
3 more votes to show rating
add to favorites
×
Save as Personal and add changes to this tab that will be seen only by you. Learn more ›
×
You can save this tab as Personal to edit and correct it or add notes. All changes will be seen only by you. Learn more »
launch autoscroll
font size
0
reset
guitar tuner
edit
Autoscroll
slow
fast
+/-
esc
set tempo
stop
[Intro]
G|--------------------------|
D|-------------------9------| (x4) 
A|-----------9--9-11---11-9-|
E|-9--7-9--7----------------|

G|---------------------|
D|---------------------| 
A|---------------------|
E|-6--4-6--4-6--4-6--4-|

G|--------------------------|
D|-------------------9------| (x3) 
A|-----------9--9-11---11-9-|
E|-9--7-9--7----------------|

[Verse 1]
In this...               When...             I feel...
G|----------------------------|-------------------------|------------------|
D|-------------------9--------|----------------9--------|------------------|
A|-----------9--9-11---11-9---|--------9--9-11---11-9---|------------------|
E|-9--7-9--7----------------9-|-7-9--7----------------6-|-4-6--4-6--4-6--4-|

In this dark room, in this bed
When you hold me like this 
I feel so secure

G|--------------------------|
D|-------------------9------| (x3) 
A|-----------9--9-11---11-9-|
E|-9--7-9--7----------------|

[Verse 2]
Your...                     My...              Very...
G|----------------------------|-------------------------|------------------|
D|-------------------9--------|----------------9--------|------------------|
A|-----------9--9-11---11-9---|--------9--9-11---11-9---|------------------|
E|-9--7-9--7----------------9-|-7-9--7----------------6-|-4-6--4-6--4-6--4-|

Your body that you press
My body too is 
Very warm

G|--------------------------|
D|-------------------9------|
A|-----------9--9-11---11-9-|
E|-9--7-9--7----------------|

[Pre-chorus]
     Right...           I couldn't...      I couldn't...
G|---------------------|------------------|---------------------------|
D|---------------------|------------------|---------------------------|
A|---------------------|------------------|---------------------------|
E|-8--8-8-8-6--6-6-6-8-|-8-8-8-6--6-6-6-8-|-8-8-8-6--6-6-6-6--6-6-6-9-|

Right now I fear nothing
I couldn't feel safer
I couldn't feel safer

[Chorus]
I always...this way...come...company  I always...this way...come...company
G|------------------------------------|----------------------------------|
D|------------------------------------|----------------------------------|
A|------------------------------------|----------------------------------|
E|-9-9-9-7--7-7-7-6--6-6-6-8--8-8-8-9-|-9-9-9-7--7-7-7-6--6-6-6-8--8-8-8-|

I always feel this way, that no harm can come to me 
When I'm in your company
I always feel this way, that no harm can come to me 
When I'm in your company

[Instrumental]
G|--------------------------|
D|-------------------9------| (x2) 
A|-----------9--9-11---11-9-|
E|-9--7-9--7----------------|

[Verse 1]
In this...               When...             I feel...
G|----------------------------|-------------------------|------------------|
D|-------------------9--------|----------------9--------|------------------|
A|-----------9--9-11---11-9---|--------9--9-11---11-9---|------------------|
E|-9--7-9--7----------------9-|-7-9--7----------------6-|-4-6--4-6--4-6--4-|

In this dark room, in this bed
When you hold me like this 
I feel so secure

G|--------------------------|
D|-------------------9------| (x3) 
A|-----------9--9-11---11-9-|
E|-9--7-9--7----------------|

[Verse 2]
Your...                     My...              Very...
G|----------------------------|-------------------------|------------------|
D|-------------------9--------|----------------9--------|------------------|
A|-----------9--9-11---11-9---|--------9--9-11---11-9---|------------------|
E|-9--7-9--7----------------9-|-7-9--7----------------6-|-4-6--4-6--4-6--4-|

Your body that you press
My body too is 
Very warm

G|--------------------------|
D|-------------------9------|
A|-----------9--9-11---11-9-|
E|-9--7-9--7----------------|

[Pre-chorus]
     Right...           I couldn't...      I couldn't...
G|---------------------|------------------|---------------------------|
D|---------------------|------------------|---------------------------|
A|---------------------|------------------|---------------------------|
E|-8--8-8-8-6--6-6-6-8-|-8-8-8-6--6-6-6-8-|-8-8-8-6--6-6-6-6--6-6-6-9-|

Right now I fear nothing
I couldn't feel safer
I couldn't feel safer

[Chorus]
I always...this way...come...company  I always...this way...come...company
G|------------------------------------|----------------------------------|
D|------------------------------------|----------------------------------|
A|------------------------------------|----------------------------------|
E|-9-9-9-7--7-7-7-6--6-6-6-8--8-8-8-9-|-9-9-9-7--7-7-7-6--6-6-6-8--8-8-8-|

I always feel this way, that no harm can come to me 
When I'm in your company
I always feel this way, that no harm can come to me 
When I'm in your company

[Outro]
G|--------------------------|
D|-------------------9------| (x7) 
A|-----------9--9-11---11-9-|
E|-9--7-9--7----------------|

G|----------------------------|
D|-------------------9--------|  
A|-----------9--9-11---11-9---|
E|-9--7-9--7----------------9-|
Suggest correction
Creating personal tab
Creating personal tab
You can edit any tab online and save it as your Personal.

You can edit, replace or remove any tab part or add personal notes – all changes will be seen only by you.

Personal tabs can be accessed anytime from any device, even offline.
Learn more »
Give kudos to tab author, rate the tab!
1 2 3 4 5
comments
print report bad tab
guest
You may want to rate the tab now too:
select rating
Wanna post a correction for this tab? Suggest correction