Oops, an error
Loading. Please wait.

Emmas House bass

190 views 1 this week
no commentswrite comment
1 2 3 4 5
2 more votes to show rating
add to favorites
×
Save as Personal and add changes to this tab that will be seen only by you. Learn more ›
×
You can save this tab as Personal to edit and correct it or add notes. All changes will be seen only by you. Learn more »
launch autoscroll
font size
0
reset
guitar tuner
edit
Autoscroll
slow
fast
+/-
esc
set tempo
stop
Author
-------------------------------------------------------------------------------
                             EMMA'S HOUSE - The Field Mice
-------------------------------------------------------------------------------
Tabbed by: SPLAM!
Bassist: Michael Hiscock
Tuning: EADG

  Intro:
  1 + 2 + 3 + 4 +
G|----------------|
D|----------------|
A|------------1---|
E|--------------1-|

  Verses/Riff:
  1 + 2 + 3 + 4 +  1 + 2 + 3 + 4 +  1 + 2 + 3 + 4 +  1 + 2 + 3 + 4 +
G|----------------|------------1---|----------------|----------------|
D|------------1---|3---3-3---3---3-|1---1-1---1-3-1-|----------------|
A|1---1-1---1-----|----------------|----------------|1---1-1-----1---|
E|----------------|----------------|----------------|----------1---1-|

Verse ending:
  1 + 2 + 3 + 4 +  1 + 2 + 3 + 4 +  1 + 2 + 3 + 4 +  1 + 2 + 3 + 4 +
G|----------------|------------1---|----------------|------------1---|
D|------------1---|3---3-3---3---3-|1---1-1---1-1-1-|1---1-1---3-----|
A|1---1-1---1-----|----------------|----------------|----------------|
E|----------------|----------------|----------------|----------------|


  Chorus:
  1 + 2 + 3 + 4 +  1 + 2 + 3 + 4 +  1 + 2 + 3 + 4 +  1 + 2 + 3 + 4 +
G|----------------|----------------|----------------|----------3-----|
D|------------1---|3---3-3---3-3-1-|5---5-5---5-5-3-|5---5-5-----5-3-|
A|1---1-1---1-----|----------------|----------------|----------------|x3
E|----------------|----------------|----------------|----------------|

  1 + 2 + 3 + 4 +  1 + 2 + 3 + 4 +  1 + 2 + 3 + 4 +  1 + 2 + 3 + 4 +
G|----------------|----------------|----------------|----------------|
D|------------1---|3---3-3---3-3---|----------------|----------1-3---|
A|1---1-1---1-----|----------------|3---3-3---3-3-1-|3---3-3---------|
E|----------------|----------------|----------------|----------------|

  1 + 2 + 3 + 4 +  1 + 2 + 3 + 4 +  1 + 2 + 3 + 4 +  1 + 2 + 3 + 4 +
G|----------------|----------------|----------------|----------3-----|
D|------------1---|3---3-3---3-3-1-|5---5-5---5-5-3-|5---5-5-----5-3-|
A|1---1-1---1-----|----------------|----------------|----------------|
E|----------------|----------------|----------------|----------------|

  1 + 2 + 3 + 4 +  1 + 2 + 3 + 4 +  1 + 2 + 3 + 4 +  1 + 2 + 3 + 4 +
G|----------------|----------------|----------------|----------------|
D|------------1---|3---3-3---3-3---|----------------|----------1-3---|
A|1---1-1---1-----|----------------|3---3-3---3-3-1-|3---3-3---------|
E|----------------|----------------|----------------|----------------|
                            Before the outro, the last bar changes to:
  1 + 2 + 3 + 4 +
G|----------------|
D|----------------|
A|3---3-3---3-3-3-|
E|----------------|

Reintro:
  1 + 2 + 3 + 4 +  1 + 2 + 3 + 4 +
G|----------------|----------------|
D|----------------|----------------|
A|1---1-1---1-1-1-|1---1-1-----1---|x2 
E|----------------|----------1---1-|

  1 + 2 + 3 + 4 +  1 + 2 + 3 + 4 +
G|----------------|----------------|
D|1---1-1---1-1---|1---1-1---3-1---|
A|--------------1-|--------------3-| 
E|----------------|----------------|

  1 + 2 + 3 + 4 +  1 + 2 + 3 + 4 +
G|----------------|----------------|
D|----------------|----------------|
A|1---1-1---1-1---|1---1-1-----1---| 
E|--------------1-|----------1---1-|

Outro:
  1 + 2 + 3 + 4 +  1 + 2 + 3 + 4 +
G|----------------|----------------|
D|1---1-1-1-1-1-1-|3.-3.-1.-1.-----|
A|----------------|------------3---|1(Let ring)
E|----------------|----------------|

| .  (beside note) dotted duration
===============================================================================

            
            
Suggest correction
Creating personal tab
Creating personal tab
You can edit any tab online and save it as your Personal.

You can edit, replace or remove any tab part or add personal notes – all changes will be seen only by you.

Personal tabs can be accessed anytime from any device, even offline.
Learn more »
Give kudos to tab author, rate the tab!
1 2 3 4 5
comments
print report bad tab
guest
You may want to rate the tab now too:
select rating
Wanna post a correction for this tab? Suggest correction