Oops, an error
Loading. Please wait.

End Of The Affair tab

46 views 1 this week
no commentswrite comment
1 2 3 4 5
3 more votes to show rating
add to favorites
×
Save as Personal and add changes to this tab that will be seen only by you. Learn more ›
×
You can save this tab as Personal to edit and correct it or add notes. All changes will be seen only by you. Learn more »
launch autoscroll
font size
0
reset
how to read this tab
guitar tuner
edit
Autoscroll
slow
fast
+/-
esc
set tempo
stop
[Intro]
e|-----5-5--------5-5---|-----3-3--------3-3---|----------------------|----------------------|
B|---6-----6----6-----6-|---5-----5----5-----5-|-----4-4--------4-4---|-----3-3--------3-3---|
G|-5----------5---------|-5----------5---------|---3-----3----3-----3-|---3-----3----3-----3-|
D|----------------------|----------------------|-5----------5---------|-3----------3---------|
A|----------------------|----------------------|----------------------|----------------------|
E|----------------------|----------------------|----------------------|----------------------|

[Verse 1]
             This is...  isn't it?       This is...              For...                 For...
e|-----5-5--------5-5---|-----3-3--------3-3---|----------------------|----------------------|
B|---6-----6----6-----6-|---5-----5----5-----5-|-----4-4--------4-4---|-----3-3--------3-3---|
G|-5----------5---------|-5----------5---------|---3-----3----3-----3-|---3-----3----3-----3-|
D|----------------------|----------------------|-5----------5---------|-3----------3---------|
A|----------------------|----------------------|----------------------|----------------------|
E|----------------------|----------------------|----------------------|----------------------|

This is it, isn't it?
This is the end
For you and I
For you and I

[Instrumental]
e|-----5-5--------5-5---|-----3-3--------3-3---|----------------------|----------------------|
B|---6-----6----6-----6-|---5-----5----5-----5-|-----4-4--------4-4---|-----3-3--------3-3---|
G|-5----------5---------|-5----------5---------|---3-----3----3-----3-|---3-----3----3-----3-|
D|----------------------|----------------------|-5----------5---------|-3----------3---------|
A|----------------------|----------------------|----------------------|----------------------|
E|----------------------|----------------------|----------------------|----------------------|

[Verse 2]
...end of...             We no...          For...
e|-----5-5--------5-5---|-----3-3--------3-3---|----------------------|----------------------|
B|---6-----6----6-----6-|---5-----5----5-----5-|-----4-4--------4-4---|-----3-3--------3-3---|
G|-5----------5---------|-5----------5---------|---3-----3----3-----3-|---3-----3----3-----3-|
D|----------------------|----------------------|-5----------5---------|-3----------3---------|
A|----------------------|----------------------|----------------------|----------------------|
E|----------------------|----------------------|----------------------|----------------------|

The end of the affair
We no longer care
For each other

[Pre-chorus]
     Once...                Once...
e|----------------------|----------------------|
B|-----3-3--------4-4---|-----3-3--------4-4---|
G|---3-----3----3-----3-|---3-----3----3-----3-|
D|-5----------5---------|-5----------5---------|
A|----------------------|----------------------|
E|----------------------|----------------------|

Once I needed you so
Once I needed you so
Now I can't stand being in the same room as you
I can't even stand the sight of you

[Instrumental]
e|-----5-5--------5-5---|-----3-3--------3-3---|----------------------|----------------------|
B|---6-----6----6-----6-|---5-----5----5-----5-|-----4-4--------4-4---|-----3-3--------3-3---|
G|-5----------5---------|-5----------5---------|---3-----3----3-----3-|---3-----3----3-----3-|
D|----------------------|----------------------|-5----------5---------|-3----------3---------|
A|----------------------|----------------------|----------------------|----------------------|
E|----------------------|----------------------|----------------------|----------------------|

[Chorus]
  This is...  This is...  This is... This is...  This is... This is...                  For... 
e|-----5-5--------5-5---|-----3-3--------3-3---|----------------------|----------------------|
B|---6-----6----6-----6-|---5-----5----5-----5-|-----4-4--------4-4---|-----3-3--------3-3---|
G|-5----------5---------|-5----------5---------|---3-----3----3-----3-|---3-----3----3-----3-| (x3)
D|----------------------|----------------------|-5----------5---------|-3----------3---------| 
A|----------------------|----------------------|----------------------|----------------------|
E|----------------------|----------------------|----------------------|----------------------|

This is it, isn't it?
This is it, isn't it?
This is it, isn't it?
This is it, isn't it?
This is it, isn't it?
This is it, this is the end
For you and I
This is it, isn't it?
(I don't love you)
This is it, isn't it?
(Anymore)
This is it, isn't it?
(And you don't love me)       
This is it, isn't it?
(Anymore)
This is it, isn't it?
(Do you?)
This is it, this is the end
For you and I
This is it, isn't it?
(I don't love you)
This is it, isn't it?
(Anymore)
This is it, isn't it?
(And you don't love me)       
This is it, isn't it?
(Anymore)
This is it, isn't it?
(Do you?)
This is it, this is the end
For you and I

            
            
Suggest correction
Creating personal tab
Creating personal tab
You can edit any tab online and save it as your Personal.

You can edit, replace or remove any tab part or add personal notes – all changes will be seen only by you.

Personal tabs can be accessed anytime from any device, even offline.
Learn more »
Give kudos to tab author, rate the tab!
1 2 3 4 5
comments
print report bad tab
guest
You may want to rate the tab now too:
select rating
Wanna post a correction for this tab? Suggest correction