Oops, an error
Loading. Please wait.

Fabulous Friend tab

37 views 1 this week
no commentswrite comment
1 2 3 4 5
3 more votes to show rating
add to favorites
×
Save as Personal and add changes to this tab that will be seen only by you. Learn more ›
×
You can save this tab as Personal to edit and correct it or add notes. All changes will be seen only by you. Learn more »
launch autoscroll
font size
0
reset
how to read this tab
guitar tuner
edit
Autoscroll
slow
fast
+/-
esc
set tempo
stop
[Intro]
e|---5-4---|---5-4---|---5-4---|
B|-5-----5-|-5-----5-|-5-----5-|
G|---------|---------|---------|
D|---------|---------|---------|
A|---------|---------|---------|
E|---------|---------|---------|

[Verse 1]
e|---5-4---|
B|-5-----5-| 
G|---------| (x8)
D|---------|
A|---------|
E|---------|

That hard, cruel, hostile town
There’s no place you’d want to fail
If somewhere you were to fail

[Verse 2]
e|---5-4---|
B|-5-----5-|
G|---------| (x9)
D|---------|
A|---------|
E|---------|

Success at any cost
If fade the same and fall
If fade the same and fall

[Chorus]
e|---5-4---|
B|-5-----5-|
G|---------| (x7)
D|---------|
A|---------|
E|---------|

 But even there I did not think of
 Someone I should have thought of

[Verse 3]
e|---5-4---|
B|-5-----5-| 
G|---------| (x8)
D|---------|
A|---------|
E|---------|

She was my fabulous friend
I could but be impressed
I could but be impressed

[Verse 4]
e|---5-4---|
B|-5-----5-|
G|---------| (x9)
D|---------|
A|---------|
E|---------|

I wish I’d been hers too
What good does wishing do?
What good does wishing do?

[Chorus]
e|---5-4---|
B|-5-----5-|
G|---------| (x7)
D|---------|
A|---------|
E|---------|


I was born afraid
I miss her to this day

[Verse 5]
e|---5-4---|
B|-5-----5-| 
G|---------| (x8)
D|---------|
A|---------|
E|---------|

For me and only me
My concern it was for me
My concern it was for me

[Verse 6]
e|---5-4---|
B|-5-----5-| 
G|---------| (x9)
D|---------|
A|---------|
E|---------|

How am I to accept?
I could show such thoughtlessness
I could show such thoughtlessness

[Chorus]
e|---5-4---|
B|-5-----5-| 
G|---------| (x6)
D|---------|
A|---------|
E|---------|

e|---5-4-----|
B|-5-----5-5-| 
G|-----------| 
D|-----------|
A|-----------|
E|-----------|

I can’t stop thinking of
The person I did not think of

[Bridge]
e|--------------|--------------|---------------------4-|
B|---0-2----0-2-|---0-2----0-2-|---0-2----0-2----5-5---|
G|-2------4-----|-2------4-----|-2------4--------------| (x2)
D|--------------|--------------|---------------6-------|
A|--------------|--------------|-----------------------|
E|--------------|--------------|-----------------------|

I’m not brave
I’m not special
I’m not any of those things
I’m not any of those things

[Verse 7]
e|---5-4---|
B|-5-----5-| 
G|---------| (x3)
D|---------|
A|---------|
E|---------|

e|---5-4-----|
B|-5-----5-5-| 
G|-----------| 
D|-----------|
A|-----------|
E|-----------|

This guilt that I do feel
I deserve to always feel
Fully deserve to never not feel

            
            
Suggest correction
Creating personal tab
Creating personal tab
You can edit any tab online and save it as your Personal.

You can edit, replace or remove any tab part or add personal notes – all changes will be seen only by you.

Personal tabs can be accessed anytime from any device, even offline.
Learn more »
Give kudos to tab author, rate the tab!
1 2 3 4 5
comments
print report bad tab
guest
You may want to rate the tab now too:
select rating
Wanna post a correction for this tab? Suggest correction