Oops, an error
Loading. Please wait.

If You Need Someone Bass Tab

13 views 1 this week
no commentswrite comment
1 2 3 4 5
3 more votes to show rating
add to favorites
launch autoscroll
font size
0
reset
guitar tuner
Autoscroll
slow
fast
+/-
esc
set tempo
stop
Help us to improve Ultimate-Guitar.com Take our survey!
×
Author
The Field Mice - If You Need Someone (bass)

I kept this tab quite simple, but I believe the notes are right.
Not 100% sure about the chorus. I think there is some variation.
Please leave comment if you think there are some mistakes.

[Intro]
G|---11---11---11-11---------------------------------------------------------|
D|-9----9----9-------9-------------------------------------------------------|
A|---------------------------------------------------------------------------|
E|---------------------------------------------------------------------------|

[Verse]
G|---------------------------------------------------------------------------|
D|-9-9-9-9-9-8-9-9-11-11-9---------------------------------------------------|
A|-------------------------11-9-9-9-9-9-8-9-9-12-12-9------------------------|
E|---------------------------------------------------------------------------|

G|---------------------------------------------------------------------------|
D|---------------------------------------------------------------------------|
A|-9\7-7-7-7-7-7-6-6-7-6-7-----------6-6-6-7-7-7-----------------------------|
E|-------------------------9-9-7-7-9-----------------------------------------|

[Chorus]
G|---------------------------------------------------------------------------|
D|-14-14-14-14-14-14-14-14-14-14-14-13-11-11-11-11-11-11-13-13-14-14-11------|
A|---------------------------------------------------------------------------|
E|---------------------------------------------------------------------------|

G|---------------------------------------------------------------------------|
D|-9-9-9-9-9-9-9-9-9-9-9-9-13-13-13-13-13-13-13-13-13-13-13-13---------------|
A|---------------------------------------------------------------------------|
E|---------------------------------------------------------------------------|

G|---------------------------------------------------------------------------|
D|-14-14-14-14-14-14-14-14-14-14-13-11-11-11-11-11-11-13-13-14-14-13---------|
A|---------------------------------------------------------------------------|
E|---------------------------------------------------------------------------|

[Bridge/Outro] (same as intro)
G|---11---11---11-11---------------------------------------------------------|
D|-9----9----9-------9-------------------------------------------------------|
A|---------------------------------------------------------------------------|
E|---------------------------------------------------------------------------|

song sequence
intro x4
verse x4
chorus x1
verse x2
chorus x1
bridge x2
verse x2
chorus x1
outro x4

Also, probably more slides in here what's tabbed. 

-Joaquin

************************************

| \   Slide down

************************************
Suggest correction
Give kudos to tab author, rate the tab!
1 2 3 4 5
comments
print report bad tab
guest
You may want to rate the tab now too:
select rating
Wanna post a correction for this tab? Suggest correction