Oops, an error
Loading. Please wait.

Missing The Moon chords

46 views 3 this week
no commentswrite comment
1 2 3 4 5
3 more votes to show rating
add to favorites
×
Save as Personal and add changes to this tab that will be seen only by you. Learn more ›
×
You can save this tab as Personal to edit and correct it or add notes. All changes will be seen only by you. Learn more »
launch autoscroll
font size
0
reset
transpose
0
reset
display chords
guitar tuner
edit
Autoscroll
slow
fast
+/-
esc
set tempo
stop
Strumming
There is no strumming pattern for this song yet. and get +5 IQ
[Intro]
Bbm Ebm F# Dbm

[Verse 1]
    Bbm
I believe
           Ebm
As long as we
F#                               Dbm
Two are in this world we'll be together
           Bbm
Time goes slow
            Ebm
When we're apart
    F#                            Dbm
And races by when we're with one another

[Chorus]
  Db
I know
                     Ab
Feelings change that even those 
                       Bbm
You think'll stay, don't always
        Db
Can go away
  Db
I do
                Ab
I really do nevertheless
              Bbm
I believe this love's to stay
       Db
I believe our
              Bbm 
Love shall remain

e|-------------|-----------|-------------|---------|
B|-------------|-----------|-------------|---------|
G|-------------|-----------|-------------|---------|
D|---------0-1-|-2-3-1-3-4-|-4-6-4-3-4-1-|-1-3-1---|
A|-3-4-3-1-----|-----------|-------------|-------4-|
E|-------------|-----------|-------------|---------|

[Verse 2]
       Bbm
By now you
           Ebm
Should be home
F#                                Dbm
'Home' is far from where I am on this night
        Bbm
It is only 
         Ebm
A matter of
F#                                Dbm
Hours since you were here holding me tight

[Chorus]
  Db
I know
                     Ab
Feelings change that even those 
                       Bbm
You think'll stay, don't always
        Db
Can go away
  Db
I do
                Ab
I really do nevertheless
              Bbm
I believe this love's to stay
       Db
I believe our
              Bbm 
Love shall remain

e|-------------|-----------|-------------|---------|
B|-------------|-----------|-------------|---------|
G|-------------|-----------|-------------|---------|
D|---------0-1-|-2-3-1-3-4-|-4-6-4-3-4-1-|-1-3-1---|
A|-3-4-3-1-----|-----------|-------------|-------4-|
E|-------------|-----------|-------------|---------|

[Verse 3]
            C
The night before
           Bbm
Christmas finds
F#                             Dbm
Me sad, we are apart we are so often
        C
Earlier on
          Bbm
Today we kissed
F#                                 Dbm
Kissed goodbye, goodbye in Central London 

[Chorus]
  Db
I know
                     Ab
Feelings change that even those 
                       Bbm
You think'll stay, don't always
        Db
Can go away
  Db
I do
                Ab
I really do nevertheless
              Bbm
I believe this love's to stay
       Db
I believe our
              Bbm 
Love shall remain

e|-------------|-----------|-------------|---------|
B|-------------|-----------|-------------|---------|
G|-------------|-----------|-------------|---------|
D|---------0-1-|-2-3-1-3-4-|-4-6-4-3-4-1-|-1-3-1---|
A|-3-4-3-1-----|-----------|-------------|-------4-|
E|-------------|-----------|-------------|---------|

[Outro]
e|--------------------------------|---------------------------------|
B|--------------------------------|---------------------------------|
G|--------------------------------|---------------------------------|
D|-------------1-3-1-1---1---1----|-------------1-3-1-1---1---1-----| (x5)
A|-4-1---1-1-4---------4---3---4-1|---1-4-1-1-4---------4---3---4-1-|
E|-----4--------------------------|-4-------------------------------|
Suggest correction
Creating personal tab
Creating personal tab
You can edit any tab online and save it as your Personal.

You can edit, replace or remove any tab part or add personal notes – all changes will be seen only by you.

Personal tabs can be accessed anytime from any device, even offline.
Learn more »
Give kudos to tab author, rate the tab!
1 2 3 4 5
comments
print report bad tab
guest
You may want to rate the tab now too:
select rating
Wanna post a correction for this tab? Suggest correction