Oops, an error
Loading. Please wait.

When Morning Comes To Town tab

40 views 1 this week
no commentswrite comment
1 2 3 4 5
3 more votes to show rating
add to favorites
×
Save as Personal and add changes to this tab that will be seen only by you. Learn more ›
×
You can save this tab as Personal to edit and correct it or add notes. All changes will be seen only by you. Learn more »
launch autoscroll
font size
0
reset
how to read this tab
guitar tuner
edit
Autoscroll
slow
fast
+/-
esc
set tempo
stop
[Verse 1]
When morning comes to town
I'll be moving on
When evening comes back 'round
I'll be somewhere alone
Somewhere far away
What about you?
All things have to end
They have to and they do
And they do

[Verse 2]
     We started...      To one...
     We know...
e|-----------------|-3--3-1--1-------|
B|-4--4-3--3-1-----|-----------4-----|
G|-----------------|-----------------| (x2)
D|-----------------|-----------------|
A|-----------------|-----------------|
E|-----------------|-----------------|

  What we...
e|-1-3-------1-3-4-|
B|-----4-----------|
G|-----------------|
D|-----------------|
A|-----------------|
E|-----------------|

We started to believe
To one another we belong
We know that isn't so
You're not mine, I am not yours
I never wanted this
For us to carry on
Knowing that it is
In no way what we want
What we want

[Chorus]
   This...   rain..        I'm... happy..
e|-3----------6----------3----------1---1---|
B|---4----------3----------4--------------4-|
G|------------------------------------------|
D|------------------------------------------|
A|------------------------------------------|
E|------------------------------------------|

This way it is the way
No rain or cutting words
I'm happy to go out like this
If happy is the word

e|-----------------|-3--3-1--1-------|
B|-4--4-3--3-1-----|-----------4-----|
G|-----------------|-----------------| (x2)
D|-----------------|-----------------|
A|-----------------|-----------------|
E|-----------------|-----------------|

[Verse 3]
     I'll...           For you...
     That for...
e|-----------------|-3--3-1--1-------|
B|-4--4-3--3-1-----|-----------4-----|
G|-----------------|-----------------| (x2)
D|-----------------|-----------------|
A|-----------------|-----------------|
E|-----------------|-----------------|

  Would...
e|-1-3-------1-3-4-|
B|-----4-----------|
G|-----------------|
D|-----------------|
A|-----------------|
E|-----------------|

I'll think of you always
For you know as well as I
That for you I would have
Died and would still die
Would still die

[Verse 4]
           When...                          Something...
           End for...
e|---3---3---3---3---3---3---3---3-|---6---6---6---6---6---6---6---6-|
B|-4---4---3---3---1---1---1---1---|-4---4---3---3---4---4---4---4---|
G|---------------------------------|---------------------------------| (x4)
D|---------------------------------|---------------------------------| 
A|---------------------------------|---------------------------------| 
E|---------------------------------|---------------------------------| 

  Something's...
e|-1-3-------1-3-4-|
B|-----4-----------|
G|-----------------|
D|-----------------|
A|-----------------|
E|-----------------|

When morning comes to town
Something once precious will
End for all of time
Because of how we feel
But better that than have
Us afraid to be alone
Not saying anything
Knowing something's wrong
Something's wrong

[Chorus]
   This...   rain..        I'm... happy..
e|-3----------6----------3----------1---1---|
B|---4----------3----------4--------------4-|
G|------------------------------------------|
D|------------------------------------------|
A|------------------------------------------|
E|------------------------------------------|

This way it is the way
No rain or cutting words
I'm happy to go out like this
If happy is the word

[Outro]
e|-----------------|-3--3-1--1-------|
B|-4--4-3--3-1-----|-----------4-----|
G|-----------------|-----------------| (x4)
D|-----------------|-----------------|
A|-----------------|-----------------|
E|-----------------|-----------------|
Suggest correction
Creating personal tab
Creating personal tab
You can edit any tab online and save it as your Personal.

You can edit, replace or remove any tab part or add personal notes – all changes will be seen only by you.

Personal tabs can be accessed anytime from any device, even offline.
Learn more »
Give kudos to tab author, rate the tab!
1 2 3 4 5
comments
print report bad tab
guest
You may want to rate the tab now too:
select rating
Wanna post a correction for this tab? Suggest correction