Oops, an error
Loading. Please wait.

Willow tab

version 2
version 2

Whole song

  • Based off studio version (https://www.youtube.com/watch?v=8IHaGAATY-k).
67 views 6 this week
no commentswrite comment
1 2 3 4 5
3 more votes to show rating
add to favorites
×
Save as Personal and add changes to this tab that will be seen only by you. Learn more ›
×
You can save this tab as Personal to edit and correct it or add notes. All changes will be seen only by you. Learn more »
launch autoscroll
font size
0
reset
how to read this tab
guitar tuner
edit
Autoscroll
slow
fast
+/-
esc
set tempo
stop
[Intro]
e|-------------------------------|-------------------------------|
B|---4---2---4---4---4---2---4---|---4---2---4---4---4---2---4---|
G|-----4---4---4-------4---4---4-|-----4---4---4-------4---4---4-| (x2)
D|-4---------------4-------------|-2---------------2-------------|
A|-------------------------------|-------------------------------|
E|-------------------------------|-------------------------------|

e|-----------------------------------|-----------------------------|
B|-------4---2---4---4---4---2---4---|---4---4---2---2---4---2---5-|
G|---------4---4---4-------4---4---4-|-----4---4---4-------4---4---|
D|-----6---------------6-------------|-4---------------4-----------|
A|-----------------------------------|-----------------------------|
E|-7-6-------------------------------|-----------------------------|

e|---------------------------------|---------------------------------|
B|---4---2---4---4---4---2---4---4-|---4---2---4---4---4---2---4---4-|
G|-----4---4---4-------4---4---4---|-----4---4---4-------4---4---4---| 
D|-4---------------4---------------|-4---------------4---------------|
A|---------------------------------|---------------------------------|
E|---------------------------------|---------------------------------|

[Verse 1]
        I said...                        Want you...
e|-------------------------------|-------------------------------|
B|---4---2---4---4---4---2---4---|---4---2---4---4---4---2---4---|
G|-----4---4---4-------4---4---4-|-----4---4---4-------4---4---4-| 
D|-4---------------4-------------|-2---------------2-------------|
A|-------------------------------|-------------------------------|
E|-------------------------------|-------------------------------|
         Now there's...                 That I...
e|-------------------------------|-----------------------------|
B|---4---2---4---4---4---2---4---|---4---4---2---2---4---4---2-|
G|-----4---4---4-------4---4---4-|-----4---4---4-------4---4---|
D|-6---------------6-------------|-4---------------4-----------|
A|-------------------------------|-----------------------------|
E|-------------------------------|-----------------------------|
         I miss...                      More than...
e|-------------------------------|-------------------------------|
B|---4---2---4---4---4---2---4---|---4---2---4---4---4---2---4---|
G|-----4---4---4-------4---4---4-|-----4---4---4-------4---4---4-| 
D|-4---------------4-------------|-2---------------2-------------|
A|-------------------------------|-------------------------------|
E|-------------------------------|-------------------------------|
        I'm sorry...                    My being...
e|-------------------------------|-----------------------------|
B|---4---2---4---4---4---2---4---|---4---4---2---2---4---4---2-|
G|-----4---4---4-------4---4---4-|-----4---4---4-------4---4---|
D|-6---------------6-------------|-4---------------4-----------|
A|-------------------------------|-----------------------------|
E|-------------------------------|-----------------------------|

I said to you I'd always
Want you and want you only
Now there's another that I
That I want and I want only
I miss this other more than
More than I used to miss you
I'm sorry if my being
My being honest hurts you

[Chorus]
  Don't...                        Go...
e|-------------------------------|-------------------------------|
B|---4---2---4---4---4---2---4---|---4---2---4---4---4---2---4---|
G|-----4---4---4-------4---4---4-|-----4---4---4-------4---4---4-| 
D|-4---------------4-------------|-2---------------2-------------|
A|-------------------------------|-------------------------------|
E|-------------------------------|-------------------------------|
  I never...                      Love...
e|-------------------------------|-----------------------------|
B|---4---2---4---4---4---2---4---|---4---4---2---2---4---4---2-|
G|-----4---4---4-------4---4---4-|-----4---4---4-------4---4---|
D|-6---------------6-------------|-4---------------4-----------|
A|-------------------------------|-----------------------------|
E|-------------------------------|-----------------------------|
  Don't                           Go...
e|-------------------------------|-------------------------------|
B|---4---2---4---4---4---2---4---|---4---2---4---4---4---2---4---|
G|-----4---4---4-------4---4---4-|-----4---4---4-------4---4---4-| 
D|-4---------------4-------------|-2---------------2-------------|
A|-------------------------------|-------------------------------|
E|-------------------------------|-------------------------------|
  Such a...                       Such a...
e|-------------------------------|----------------------------|
B|---4---2---4---4---4---2---4---|---4---4---2---2---4---2---5|
G|-----4---4---4-------4---4---4-|-----4---4---4-------4---4--|
D|-6---------------6-------------|-4---------------4----------|
A|-------------------------------|----------------------------|
E|-------------------------------|----------------------------|

Don't you
Go thinking
I never did
Love you
Don't you
Go thinking
Such a thing
Such a thing

[Verse 2]
        I'm sorry...                    Hardly...
e|-------------------------------|-------------------------------|
B|---4---2---4---4---4---2---4---|---4---2---4---4---4---2---4---|
G|-----4---4---4-------4---4---4-|-----4---4---4-------4---4---4-| 
D|-4---------------4-------------|-2---------------2-------------|
A|-------------------------------|-------------------------------|
E|-------------------------------|-------------------------------|
         I do...                       That for...
e|-------------------------------|-----------------------------|
B|---4---2---4---4---4---2---4---|---4---4---2---2---4---4---2-|
G|-----4---4---4-------4---4---4-|-----4---4---4-------4---4---|
D|-6---------------6-------------|-4---------------4-----------|
A|-------------------------------|-----------------------------|
E|-------------------------------|-----------------------------|
                  
e|-------------------------------|-------------------------------|
B|---4---2---4---4---4---2---4---|---4---2---4---4---4---2---4---|
G|-----4---4---4-------4---4---4-|-----4---4---4-------4---4---4-| 
D|-4---------------4-------------|-2---------------2-------------|
A|-------------------------------|-------------------------------|
E|-------------------------------|-------------------------------|
 
e|-------------------------------|-----------------------------|
B|---4---2---4---4---4---2---4---|---4---4---2---2---4---4---2-|
G|-----4---4---4-------4---4---4-|-----4---4---4-------4---4---|
D|-6---------------6-------------|-4---------------4-----------|
A|-------------------------------|-----------------------------|
E|-------------------------------|-----------------------------|

I'm sorry there've been times I've
Hardly said two words to you
I do not think that you see
That for the last time we do

[Chorus]
  Don't...                        Go...
e|-------------------------------|-------------------------------|
B|---4---2---4---4---4---2---4---|---4---2---4---4---4---2---4---|
G|-----4---4---4-------4---4---4-|-----4---4---4-------4---4---4-| 
D|-4---------------4-------------|-2---------------2-------------|
A|-------------------------------|-------------------------------|
E|-------------------------------|-------------------------------|
  I never...                      Love...
e|-------------------------------|-----------------------------|
B|---4---2---4---4---4---2---4---|---4---4---2---2---4---4---2-|
G|-----4---4---4-------4---4---4-|-----4---4---4-------4---4---|
D|-6---------------6-------------|-4---------------4-----------|
A|-------------------------------|-----------------------------|
E|-------------------------------|-----------------------------|
  Don't                           Go...
e|-------------------------------|-------------------------------|
B|---4---2---4---4---4---2---4---|---4---2---4---4---4---2---4---|
G|-----4---4---4-------4---4---4-|-----4---4---4-------4---4---4-| 
D|-4---------------4-------------|-2---------------2-------------|
A|-------------------------------|-------------------------------|
E|-------------------------------|-------------------------------|
  Such a...                       Such a...
e|-------------------------------|----------------------------|
B|---4---2---4---4---4---2---4---|---4---4---2---2---4---2---5|
G|-----4---4---4-------4---4---4-|-----4---4---4-------4---4--|
D|-6---------------6-------------|-4---------------4----------|
A|-------------------------------|----------------------------|
E|-------------------------------|----------------------------|

Don't you
Go thinking
I never did
Love you
Don't you
Go thinking
Such a thing
Such a thing

[Verse 3]
        I told...                       That turned...
e|-------------------------------|-------------------------------|
B|---4---2---4---4---4---2---4---|---4---2---4---4---4---2---4---|
G|-----4---4---4-------4---4---4-|-----4---4---4-------4---4---4-| 
D|-4---------------4-------------|-2---------------2-------------|
A|-------------------------------|-------------------------------|
E|-------------------------------|-------------------------------|
         When I...                      When I...
e|-------------------------------|-----------------------------|
B|---4---2---4---4---4---2---4---|---4---4---2---2---4---4---2-|
G|-----4---4---4-------4---4---4-|-----4---4---4-------4---4---|
D|-6---------------6-------------|-4---------------4-----------|
A|-------------------------------|-----------------------------|
E|-------------------------------|-----------------------------|
         There are...                   From when...
e|-------------------------------|-------------------------------|
B|---4---2---4---4---4---2---4---|---4---2---4---4---4---2---4---|
G|-----4---4---4-------4---4---4-|-----4---4---4-------4---4---4-| 
D|-4---------------4-------------|-2---------------2-------------|
A|-------------------------------|-------------------------------|
E|-------------------------------|-------------------------------|
        That I...                       That I...
e|-------------------------------|-----------------------------|
B|---4---2---4---4---4---2---4---|---4---4---2---2---4---4---2-|
G|-----4---4---4-------4---4---4-|-----4---4---4-------4---4---|
D|-6---------------6-------------|-4---------------4-----------|
A|-------------------------------|-----------------------------|
E|-------------------------------|-----------------------------|

I told you things that are not
That turned out to be untrue
When I said them I meant them
When I said them I meant them
There are so many moments
From when we were together
That I, that I do treasure
That I, that I do treasure

[Chorus]
  Don't...                        Go...
e|-------------------------------|-------------------------------|
B|---4---2---4---4---4---2---4---|---4---2---4---4---4---2---4---|
G|-----4---4---4-------4---4---4-|-----4---4---4-------4---4---4-| 
D|-4---------------4-------------|-2---------------2-------------|
A|-------------------------------|-------------------------------|
E|-------------------------------|-------------------------------|
  I never...                      Love...
e|-------------------------------|-----------------------------|
B|---4---2---4---4---4---2---4---|---4---4---2---2---4---4---2-|
G|-----4---4---4-------4---4---4-|-----4---4---4-------4---4---|
D|-6---------------6-------------|-4---------------4-----------|
A|-------------------------------|-----------------------------|
E|-------------------------------|-----------------------------|
  Don't                           Go...
e|-------------------------------|-------------------------------|
B|---4---2---4---4---4---2---4---|---4---2---4---4---4---2---4---|
G|-----4---4---4-------4---4---4-|-----4---4---4-------4---4---4-| 
D|-4---------------4-------------|-2---------------2-------------|
A|-------------------------------|-------------------------------|
E|-------------------------------|-------------------------------|
  Such a...                       Such a...
e|-------------------------------|----------------------------|
B|---4---2---4---4---4---2---4---|---4---4---2---2---4---2---5|
G|-----4---4---4-------4---4---4-|-----4---4---4-------4---4--|
D|-6---------------6-------------|-4---------------4----------|
A|-------------------------------|----------------------------|
E|-------------------------------|----------------------------|

Don't you
Go thinking
I never did
Love you
Don't you
Go thinking
Such a thing
Such a thing

[Outro]
e|-------------------------------|-------------------------------|
B|---4---2---4---4---4---2---4---|---4---2---4---4---4---2---4---|
G|-----4---4---4-------4---4---4-|-----4---4---4-------4---4---4-| 
D|-4---------------4-------------|-2---------------2-------------|
A|-------------------------------|-------------------------------|
E|-------------------------------|-------------------------------|
 
e|-------------------------------|-----------------------------|
B|---4---2---4---4---4---2---4---|---4---4---2---2---4---4---2-|
G|-----4---4---4-------4---4---4-|-----4---4---4-------4---4---|
D|-6---------------6-------------|-4---------------4-----------|
A|-------------------------------|-----------------------------|
E|-------------------------------|-----------------------------|

            
            
Suggest correction
Creating personal tab
Creating personal tab
You can edit any tab online and save it as your Personal.

You can edit, replace or remove any tab part or add personal notes – all changes will be seen only by you.

Personal tabs can be accessed anytime from any device, even offline.
Learn more »
Give kudos to tab author, rate the tab!
1 2 3 4 5
comments
print report bad tab
guest
You may want to rate the tab now too:
select rating
Wanna post a correction for this tab? Suggest correction