Oops, an error
Loading. Please wait.

Intermission tab

52 views 1 this week
no commentswrite comment
1 2 3 4 5
3 more votes to show rating
add to favorites
×
Save as Personal and add changes to this tab that will be seen only by you. Learn more ›
×
You can save this tab as Personal to edit and correct it or add notes. All changes will be seen only by you. Learn more »
launch autoscroll
font size
0
reset
how to read this tab
guitar tuner
edit
Autoscroll
slow
fast
+/-
esc
set tempo
stop
Author
-----------------------------------------------------------------------
                INTERMISSION            - Mike Gent / The Figgs
-----------------------------------------------------------------------
 2004  Sodapop Records -All Rights Reserved.

Tabbed by: TCurley5
Email:tcurley5@charter.net

Note: There are 3 different versions of this song on PALAIS.
This is the classic rock version at the end of side 2.

MAIN RIFF:
    A           B                  A           B
E|---------------------------------------------------------------|
B|---------------------------------------------------------------|
G|---------------------------------------------------------------|
D|---------------------------------------------------------------|
A|-7--7-h9--7--9---9-h11--11--p9---7--7-h9--7--9---9-h11--11--p9-|
E|-5--5-----5--7---7-------7---7---5--5-----5--7---7-------7---7-|

INTR0: (Main Riff)  A > B,  A > B 

VERSE1:
A              B         A           B
Put away those worries,  forget them ills.
A          B      A              B  
No need to hurry, dont pay those bills.
CHORUS:
E      F#                 A      B7
Step inside,  lets have a goo-od time.
E            F#                A      B7
Do what you like, we ll have a goo-od time
A       B     
Goo-od  time

RETURN TO MAIN RIFF:  A   B   A   B,  then verse

VERSE 2:

Take a left on Moon Nine? You can park on the lawn.
Bring a bottle of cheap wine,  stay out past dawn  keep going!

2nd CHORUS:

Step inside, we ll have a goo-od time.
Do what you like, lets have a goo-od time, tonight.

LEAD BREAK:  (A verse and a chorus)
chd A          B            A       B            A         B 
E|--------------------------------------------------------------------|
B|--------------------------------------------------------------------|
G|------------------------------------------------------------/s13-11-|
D|--------------------------------------/s-11-9-----------------------|
A|--7-7-h9--7--9-9-/s-11-9--7-7-h9--9-9----------7-7-h9-7--9-9--------|
E|--5-5-----5--7-7----------5-5-----7-7----------5-5----5--7-7--------|


    A          B                         E              F# 
E|--------------------------------------------------------------------|
B|------------------/s-14-12------------------------------------------|
G|--------------------------------------------------------------------|
D|----------------------------------------------9---------8--11-8-----|
A|--7-7-h9--7--9-9-------------------9--7--11-----11----9--------9-11-|
E|--5-5-----5--7-7-------------9/s-11----------------12---------------|

    A          B                        E          F#
E|--------------------------------------------------------------------|
B|--------------------------------------------------------------------|
G|--------------------------------------------------------------------|
D|--------------------------------------------------------11----------|
A|-h12--11--9---7-------------------9------11--11-----13------13------|
E|-----------------7----7-7—9/s-11------12---12----14-------------14--|

         A            B      B   B   B   B   B   B      E (Chorus)
E|--------------------------------------------------|---0---------|
B|--------------------------------------------------|---0---------|
G|--------------------------(8)—(8)-----------------|---1---------|
D|---------------------------9---9---9---9---9---9--|---2---------|
A|--11-h12--11--9--7---------9---9---9---9---9---9--|---2---------|
E|--------------------7------7---7---7---7---7---7--|---0---------|

3RD CHORUS:
E      F#                 A      B7
Step inside, we ll have a goo-od time.
E           F#                A      B7
Do what you like, lets have a goo-od time,
E                  F#                 A      B7
You can bring your wife, we ll have a goo-od time.
A      B        A      B         A
Goo-od time,    goo-od time.   Tonight.



The Figgs are the best band you never heard.

            
            
Suggest correction
Creating personal tab
Creating personal tab
You can edit any tab online and save it as your Personal.

You can edit, replace or remove any tab part or add personal notes – all changes will be seen only by you.

Personal tabs can be accessed anytime from any device, even offline.
Learn more »
Give kudos to tab author, rate the tab!
1 2 3 4 5
comments
print report bad tab
guest
You may want to rate the tab now too:
select rating
Wanna post a correction for this tab? Suggest correction