Oops, an error
Loading. Please wait.

All We Have Is Now tab

748 views 1 this week
3 commentsread comments
1 2 3 4 5
x 4
add to favorites
×
Save as Personal and add changes to this tab that will be seen only by you. Learn more ›
×
You can save this tab as Personal to edit and correct it or add notes. All changes will be seen only by you. Learn more »
launch autoscroll
font size
0
reset
how to read this tab
guitar tuner
edit
Autoscroll
slow
fast
+/-
esc
set tempo
stop
Author
Difficulty
intermediate
-------------------------------------------------------------------------------
                     All We Have Is Now - The Flaming Lips
-------------------------------------------------------------------------------
Tabbed by: JP Fowler
E-mail: starmut92@gmail.com
Tuning: EADGBe (Standard)
Album: Yoshimi Battles the Pink Robots

Other tabs for this song are both incomplete and the chord 
progressions are a bit off. Hopefully this clears things up for everyone.


Chord chart for song:

   A    B   G#m   F#  C#m   E  F#7sus4                     
e|-0----x----4----2----4----0----2-|
B|-2----4----4----2----5----0----2-|
G|-2----4----4----3----6----1----4-|
D|-2----4----6----4----6----2----2-|
A|-0----2----6----4----4----2----4-|
E|-X----X----4----x----x----0----x-|


[Verse I]


A
As logic stands you couldn't meet a man who's
         G#m         A
from the future. But logic broke as he appeared
                   G#m      B               A
he spoke about the future, "we're not gonna make it"
B                    A                   
he explained how the end will come. You and me were
                              G#m   F# E F#7sus4
never meant to be part of the future.......



[Chorus I]


A      F#      C#m  F# A         F#          C#m  F#
All we have is now,    all we've ever had is now.
A      F#      C#m  F# A         F#          C#m  F# B
All we have is now,    all we've ever had is now.


     A      F#5   C#(no3)    A      F#5     C#sus4
  4/4...       ..is now               .....is now
e|-------|-------|-------|-------|-------|---------| These notes are played with the current 
B|-------|-------|-------|-------|-------|---------| chords being played, listen to the track 
G|-------|-------|-------|-------|-------|---------| to know when to change.
D|-----2-|-----4-|-----6-|-----2-|-----4-|-----4-6-|
A|---4---|---4---|---4---|---4---|---4---|---4-----|
E|-5-----|-2-----|-4-----|-5-----|-2-----|-4-------|

     A      F#5   C#(no3)  A(no5)   F#5   G#7(no3)  F#7(no3)   B(no3)
  4/4............................
e|-------|-------|-------|-------|-------|-------|-----------|-------|
B|-------|-------|-------|-------|-------|-------|-----------|-------|
G|-------|-------|-------|-------|-------|-------|-----------|-------|
D|-----2-|-----4-|-----6-|-------|-----4-|-----4-|-------2---|-----4-|
A|---4---|---4---|---4---|---4---|---4---|---6---|-----4---4-|---2---|
E|-5-----|-2-----|-4-----|-5-----|-2-----|-4-----|-4\2-------|-2-----|


[Verse II]

A
I noticed that he had a watch and hat that
       G#m       A
looked familiar, he was me from a dimension
                 G#m      B               A
torn free of the future, "we're not gonna make it"
B                    A
he explained how the end will come. You and me were
                              G#m   F# E F#7sus4
never meant to be part of the future........


[Chorus II]

A      F#      C#m  F# A         F#          C#m    F#
All we have is now,    all we've ever had is now.
A      F#      C#m  F# A         F#          C#m
All we have is now,    all we've ever had is now.


   A(no5)   F#5   C#(no3)    A      F#5   C#(no3)
  4/4...      ..is now               .....is now
e|-------|-------|-------|-------|-------|-------|
B|-------|-------|-------|-------|-------|-------|
G|-------|-------|-------|-------|-------|-------|
D|-------|-----4-|-----6-|-----2-|-----4-|-----6-|
A|---4---|---4---|---4---|---4---|---4---|---4---|
E|-5---5-|-2-----|-4-----|-5-----|-2-----|-4-----|

    A        F#5       C#sus4       A      F#5      G#7(no3)      
  4/4............................
e|---------|-------|-------------|-------|-------|-------------|
B|---------|-------|-------------|-------|-------|-------------|
G|---------|-------|-------------|-------|-------|-------------|
D|-----2---|-----4-|-----4-6-4-6-|-----2-|-----4-|-----4-----4-|
A|---4---4-|---4---|---4---------|---4---|---4---|---6-----6---|
E|-5-------|-2-----|-4-----------|-5-----|-2-----|-4-----4-----|


[Interlude]


    F#      C#m(no5)    F#5      A      F#5      E5 
  4/4.............
e|-------|-----------|-------|-------|-------|-------|
B|-------|-----------|-------|-------|-------|-------|
G|-------|-----------|-------|-------|-------|-------|
D|-----4-|-4-2-----4-|-----4-|-----2-|-----4-|-----2-|
A|---4---|-----4-----|---4---|---4---|---4---|---2---|
E|-2-----|-------0---|-2-----|-5-----|-2-----|-0-----|


[Chorus III]


A      F#      C#m  
All we have is now.


     A      F#5   C#(no3)   
  4/4........  ..is now   
e|-------|-------|-------|
B|-------|-------|-------|
G|-------|-------|-------|
D|-----2-|-----4-|-----6-|
A|---4---|---4---|---4---|
E|-5-----|-2-----|-4-----|



Song structure:

Verse I
Chorus I
Verse II
Chorus II
Interlude
Chorus III/Outro


************************************

| /   slide up
| \   slide down
| h   hammer-on
| p   pull-off
| ~   vibrato
| +   harmonic
| x   Mute note
| b   Bend
| pb  Pre-bend
| br  Bend release
| pbr Pre-bend release
| brb Bend release bend

************************************

            
            
Suggest correction
Creating personal tab
Creating personal tab
You can edit any tab online and save it as your Personal.

You can edit, replace or remove any tab part or add personal notes – all changes will be seen only by you.

Personal tabs can be accessed anytime from any device, even offline.
Learn more »
comments
print report bad tab
3 comments total.
0 reply
mastodonspectre 10 Nov 04, 2015 06:18 PM

Finally a decent tab. Thank you!

0 reply
gtrmstr11 10 Nov 04, 2015 06:25 PM

Appreciate it brother.

+1 reply
starmut 643 Nov 05, 2015 08:10 AM

No problem, guys!

guest
You may want to rate the tab now too:
select rating
Wanna post a correction for this tab? Suggest correction