Oops, an error
Loading. Please wait.

Approaching Pavonis Mons By Balloon Utopia Planitia tab

370 views 1 this week
6 commentsread comments
1 2 3 4 5
x 3
add to favorites
×
Save as Personal and add changes to this tab that will be seen only by you. Learn more ›
×
You can save this tab as Personal to edit and correct it or add notes. All changes will be seen only by you. Learn more »
launch autoscroll
font size
0
reset
how to read this tab
guitar tuner
edit
Autoscroll
slow
fast
+/-
esc
set tempo
stop
Author
Difficulty
intermediate
-------------------------------------------------------------------------------
   Approaching Pavonis Mons By Balloon (Utopia Planitia) - The Flaming Lips
-------------------------------------------------------------------------------
Tabbed by: JP Fowler
E-mail: starmut92@gmail.com
Tuning: EADGBe (Standard)
Album: Yoshimi Battles The Pink Robots


Instrumental - Guitar and drums only.


  4/4...........
e|------|-----------|-------|------------|-----------|--------------|
B|------|-----------|-------|------------|-----------|--------------|
G|------|-----------|-------|------------|-----------|--------------|
D|------|-----------|-------|------------|-----------|-----0--------|
A|------|-----------|-------|------------|-----------|-0h2---5/7\---|
E|-14\3-|-3/5\3-0-3-|-0h2h3-|-5-5/7-0-3--|-0h2-0h2/5-|------------2-|

  4/4...........
e|-------|-------------------|
B|-------|-------------------|
G|-------|-------------------|
D|-------|-------------------|
A|-5/7---|---------2-0h2/4-0-|
E|-----2-|-2p0h2-0-----------|

  4/4...........
e|------|-----------|--------|-----------|-----------|---------|---------|
B|------|-----------|--------|-----------|-----------|---------|---------|
G|------|-----------|--------|-----------|-----------|---------|---------|
D|------|-----------|--------|-----------|-----------|-----0-0-|-2-2/4---|
A|------|-----------|-7\-----|-----------|-----------|-0h2-----|-------0-|
E|-3br0-|-0-3-3/7-0-|----3-0-|-0-3-3/7-0-|-2-2/5h7-5-|---------|---------|

  4/4...........
e|-----|-------------------|
B|-----|-------------------|
G|-----|-------------------|
D|-----|-------------------|
A|---2-|-2-2/4-4/6---2-4-2-|
E|-2---|-----------4-------|


Trumpets come in, with other brass instruments here.
  

  4/4...........
e|--------|-----------|---------|---------------|---------------|----------------|
B|--------|-----------|---------|---------------|---------------|----------------|
G|--------|-----------|---------|---------------|---------------|----------------|
D|--------|-----------|---------|---------------|---------------|----------------|
A|--------|-----------|---------|-5h7p5-0-------|-----0-0-2-2---|----------------|
E|-/4b2-0-|-/3-0-/5-5-|-3-0-3-0-|---------3-5\0-|-3-3---------0-|-3-(3)-3/5-3-0--|


  4/4...........
e|-----------|-------------|-----------------|---------|
B|-----------|-------------|-----------------|---------|
G|-----------|-------------|-----------------|---------|
D|-----------|-------------|-----------------|---------|
A|-5/7-5-3-0-|-------------|-----------------|---------|
E|-----------|-2-0h2-2/5-2-|-0h2-0h2-2/7-5\2-|-(2)/5\2-|


  4/4...........
e|---------|---------------|-------------|-------------|-------------|-------|
B|---------|---------------|-------------|-------------|-------------|-------|
G|---------|---------------|-------------|-------------|-------------|-------|
D|-----0-2-|-2-2---2-------|-------------|-4/6-4-2-0---|-------------|-------|
A|-0h2-----|-----4---4-2---|-------------|-------------|-------------|----7--|
E|---------|-------------4-|-2-4-2-0-2-0-|-----------3-|-3-5-5/7-0-3-|-3/----|


  4/4...........
e|------|---------------|-------|
B|------|---------------|-------|
G|------|---------------|-------|
D|------|---------------|-------|
A|-7\---|---------------|-------|
E|----3-|-3-3/7-5/7-3-0-|-0h3-5-|


************************************

| /   slide up
| \   slide down
| h   hammer-on
| p   pull-off
| ~   vibrato
| +   harmonic
| x   Mute note
| b   Bend
| pb  Pre-bend
| br  Bend release
| pbr Pre-bend release
| brb Bend release bend

************************************
Suggest correction
Creating personal tab
Creating personal tab
You can edit any tab online and save it as your Personal.

You can edit, replace or remove any tab part or add personal notes – all changes will be seen only by you.

Personal tabs can be accessed anytime from any device, even offline.
Learn more »
Give kudos to tab author, rate the tab!
1 2 3 4 5
comments
print report bad tab
6 comments total. Showing first comments.
+2 reply
starmut 643 Nov 06, 2015 07:11 AM, edited at 02:01 pm

Define lack of formatting? The bars and progressions are rhythmically defined and accurate.

0 reply
starmut 643 Nov 06, 2015 08:55 AM

Could you elaborate on what you believe are "little some notes miss."? I have played through this tab at least a dozen times.

+1 reply
mastodonspectre 10 Nov 06, 2015 08:59 AM

+1 for starmut...played through the tab last night and was good

guest
You may want to rate the tab now too:
select rating
Wanna post a correction for this tab? Suggest correction