Oops, an error
Loading. Please wait.

Are You A Hypnotist tab

version 2
version 2

Whole song

238 views 3 this week
1 commentread comment
1 2 3 4 5
3 more votes to show rating
add to favorites
×
Save as Personal and add changes to this tab that will be seen only by you. Learn more ›
×
You can save this tab as Personal to edit and correct it or add notes. All changes will be seen only by you. Learn more »
launch autoscroll
font size
0
reset
how to read this tab
guitar tuner
edit
Autoscroll
slow
fast
+/-
esc
set tempo
stop
Author
Difficulty
intermediate
-------------------------------------------------------------------------------
                    Are You A Hypnotist?? - The Flaming Lips
-------------------------------------------------------------------------------
Tabbed by: JP Fowler
E-mail: starmut92@gmail.com
Tuning: EADGBe (Standard)
Album: Yoshimi Battles the Pink Robots

Chord chart for song:

   Am  E   G#  A#  C   G
e|-0---0---4---6---0---1-|
B|-1---0---4---6---1---0-|
G|-2---1---5---7---0---0-|
D|-2---2---6---8---2---0-|
A|-0---2---6---8---3---x-|
E|-x---0---4---6---x---3-|


[Intro]


  4/4...................
e|-14-12--14-15-12-|-13----13----|-16-13--15-|--14-15-12-----12-14-15-|
B|-----------------|----15----15-|-----------|------------15----------|
G|-----------------|-------------|-----------|------------------------|
D|-----------------|-------------|-----------|------------------------|
A|-----------------|-------------|-----------|------------------------|
E|-----------------|-------------|-----------|------------------------|


[Verse I]


C         G                           C
I had forgiven you for tricking me again,

                G                        C
but I have been tricked again, into forgiving you.


  4/4...................
e|------------|---------8---|
B|------------|-8--6-8----8-|
G|-4-4--5-7--7|-------------|
D|------------|-------------|
A|------------|-------------|
E|------------|-------------|


[Chorus I]


Am      G    Am                     E
What is this,  are you some kind of hypnotist?

F           G      Am          G#
Waving your powers around, the sun eclipsed

A#           C
behind the cloud.
                                                              ....the cloud
  4/4.......................
e|-5--7-8-12-10-|-5-8-10--8-7-|-12--------13-12--13-15--13-12----12-|-------|
B|--------------|-------------|----15--13---------------------15----|---6-8-|
G|--------------|-------------|-------------------------------------|-8-----|
D|--------------|-------------|-------------------------------------|-------|
A|--------------|-------------|-------------------------------------|-------|
E|--------------|-------------|-------------------------------------|-------|

 Interlude:
                           Let each note ring clearly........
  4/4........................
e|-15-12----12-14-15-|-13-----12-13----|-16-13--15-16----|-15-12----12-14-15--10/12-|
B|-------15----------|----15--------15-|-----------------|-------15-----------------|
G|-------------------|-----------------|-----------------|--------------------------|
D|-------------------|-----------------|--------------3--|--------------------------|
A|-------------------|-----------------|-----------------|--------------------------|
E|-------------------|-----------------|-----------------|--------------------------|


[Verse II]

C           G
I thought I recognized your face amongst all

      C                     G
those strangers, but I am a stranger now

                   C
amongst all of the recognized.


  4/4................
e|-----------------|----------------|-----------------|---------|
B|---5---5-7-8-7-5-|----5-7-8-7-5---|---5---5-7-8-7-5-|---8-6---|
G|-7---7-----------|-7------------7-|-7---7-----------|-7-----7-|
D|-----------------|----------------|-----------------|---------|
A|-----------------|----------------|-----------------|---------|
E|-----------------|----------------|-----------------|---------|


[Chorus II]


Am      G    Am                     E
What is this,  are you some kind of hypnotist?

F           G      Am          G#
Waving your powers around, the sun eclipsed

A#           C         G#           A#         C
behind the cloud.  The sun eclipsed behind the cloud
                                                               ....the cloud
  4/4.......................
e|-5--7-8-12-10-|-5-8-10--8-7-|-12--------13-12--13-15--13-12----12-|----------------|
B|--------------|-------------|----15--13---------------------15----|-----5--5--5--5-|
G|--------------|-------------|-------------------------------------|-5-7------------|
D|--------------|-------------|-------------------------------------|----------------|
A|--------------|-------------|-------------------------------------|----------------|
E|--------------|-------------|-------------------------------------|----------------|

************************************

| /   slide up
| \   slide down
| h   hammer-on
| p   pull-off
| b   Bend

************************************

            
            
Suggest correction
Creating personal tab
Creating personal tab
You can edit any tab online and save it as your Personal.

You can edit, replace or remove any tab part or add personal notes – all changes will be seen only by you.

Personal tabs can be accessed anytime from any device, even offline.
Learn more »
Give kudos to tab author, rate the tab!
1 2 3 4 5
comments
print report bad tab
1 comment total.
0 reply
starmut 643 Nov 06, 2015 01:04 PM

Hope you guys enjoy!

guest
You may want to rate the tab now too:
select rating
Wanna post a correction for this tab? Suggest correction