Oops, an error
Loading. Please wait.

Do You Realize Chords

version 1
version 1

Whole song

Interactive

401,100 views 705 this week
12 commentsread comments
1 2 3 4 5
x 191
add to favorites
launch autoscroll
font size
0
reset
transpose
0
reset
simplify chords
display chords
guitar tuner
×
Best way to learn
"Do You Realize"
Autoscroll
slow
fast
+/-
esc
set tempo
stop
Author
12-string acoustic


[Intro]

C    Em    Am    D7

as the vocals come in, you can play along with the orchestra:

e|-----0-------3-0------------------------------------------------------|
B|---1-------3----------------------------------------------------------|
G|-2--------------------------------------------------------------------|
D|----------------------------------------------------------------------|
A|----------------------------------------------------------------------|
E|----------------------------------------------------------------------| 


[Verse]

       C      Em         Am            G         F
do you realize  that you have the most beautiful face??
       C      Em  Am                   D7
do you realize       we're floating in space??
       C      Em      Am                  G    F 
do you realize   that happiness makes you cry??
       C      Em      Am           F        Fm       C   Cadd9  C  Cadd9
do you realize   that everyone you know someday will die
      F               Am              G
and instead of saying all of your goodbyes
                  C            F
let them know you realize that life goes fast
     C                G
it's hard to make the good things last
    C               Em 
you realize the sun doesn't go down
     G                Fmaj7         G               C      Fm
it's just an illusion caused by the world spinning 'round
Bb     Eb        Gm    Cm    G#
do you realize?
F      C      Em       Am           F        Fm       C   Cadd9 
do you realize    that everyone you know someday will die
      F               Am              G
and instead of saying all of your goodbyes


[Interlude]

                  C6
let them know you realize that life goes fast
     F6 (xx323x) 
it's hard to make the good things last
    Am               
you realize the sun doesn't go down
     F6 (xx323x)      F (xx3211)    F6 (xx3231)       Am    G
it's just an illusion caused by the world   spinning 'round
F      C      Em          Am            G         F
do you realize   that you have the most beautiful face??
       C (sweep pick)
do you realize??



Chords used:

  C    Em   Am   D7   G  Fm/F   Eb   Gm   Cm   G# Fmaj7 Cadd9  C6   Bb
e|-0----0----0----2----3----1----6----3----3----4-----0----0----0----1--|
B|-1----0----1----1----3----1----8----3----4----4-----1----3----1----3--|
G|-0----0----2----2----0---1/2---8----3----5----5-----2----0----2----3--|
D|-2----2----2----0----0----3----8----5----5----6-----3----2----2----3--|
A|-3----2----0---------2----3----6----5----3----6----(3)---3----3----1--|
E|------0--------------3----1---------3---------4-----------------------|
Suggest correction
comments
print report bad tab
12 comments total. Showing first comments. show 1 bad comment
+2 reply
kostkaskater 30 Mar 03, 2006 06:11 AM

Good tab I gave it a 5...I'm a big fan since my dad started the freakin band back in 83..lol

+1 reply
joyful womble 30 Jun 30, 2006 02:14 PM

really? so could you get the flaming lips to play in northern ireland then? that would be pretty great! lol

great tab man, good work....

guest
You may want to rate the tab now too:
select rating
Wanna post a correction for this tab? Suggest correction