Oops, an error
Loading. Please wait.

Do You Realize chords

version 2
version 2

Whole song

Interactive

4,996 views 51 this week
2 commentsread comments
1 2 3 4 5
x 3
add to favorites
×
Save as Personal and add changes to this tab that will be seen only by you. Learn more ›
×
You can save this tab as Personal to edit and correct it or add notes. All changes will be seen only by you. Learn more »
launch autoscroll
font size
0
reset
transpose
0
reset
simplify chords
display chords
guitar tuner
backing track
0:00
0:00
edit
Autoscroll
slow
fast
+/-
esc
set tempo
stop
Author
Difficulty
Strumming Is this strumming pattern correct? Yes No
Whole Song 120 bpm
1
&
2
&
3
&
4
&
Listen
-------------------------------------------------------------------------------
                        Do You Realize?? - The Flaming Lips
-------------------------------------------------------------------------------
Tabbed by: JP Fowler
E-mail: starmut92@gmail.com
Tuning: EADGBe (Standard)
Album: Yoshimi Battles The Pink Robots


Chord chart for song:

  C    Em   Am   F    G    G7   Dm   D7   Fm   D#   Gm   Cm   G#
e|0----0----0----1----3----1----1----2----1----6----3----3----4-|
B|1----0----1----1----0----0----3----1----1----6----3----4----4-|
G|0----0----2----2----0----0----2----2----1----8----3----5----5-|
D|2----2----2----3----0----0----0----0----3----8----5----5----6-|
A|3----2----0----x----2----2----x----x----3----6----5----3----6-|
E|x----0----x----x----3----3----x----x----1----x----3----x----4-|



4/4..................


[Intro]

1! 2! 3! 4! 

C   Em   Am   D7



[Verse I]
    
        C  Em           Am                  G     F   
Do you realize That you have the most, beautiful face?

       C   Em  Am                D7
Do you realize we're floating in space?

F    C   Em          Am                 G
Do you realize that happiness makes you cry?

F    C       Em      Am          F        Fm        C
Do you realize that everyone you know someday will die?



[Pre-Chorus I]

    F                 Dm              G           
And instead of saying all of your goodbyes let them know you



[Chorus I]

C                      F          C                G7
Realize that life goes fast, it's hard to make the good things last.

    C                                         Dm
You realize that somin' doesn't go down, it's just an illusion

F             G7              C
caused by the world, spinnin' round.



[Interlude]

Fm         D#           Gm       Cm      G#
....Do you realize??  Ahhh......

  4/4..................................
e|-----------------------|-------------------------|---------------------|------------------|
B|-----------------------|-------------------------|---------------------|------------------|
G|-----------------------|-------------------------|---------------------|------------------|
D|-----------------------|-----------------------8-|---------------------|------------------|
A|-8-8/10-8-10-8-10-8-10-|-8-8/10-8-10-8-10-8-10---|-8-10-8-10-8-10-8-10-|-10-10/11-10-10/11|
E|-----------------------|-------------------------|---------------------|------------------|


[Verse II]

F    C      Em        Am          F        Fm        C
Do you realize that everyone you know someday will die?



[Pre-Chorus II]

    F                 Dm              G           
And instead of saying all of your goodbyes let them know you



[Chorus II]

Am                                 Dm               
Realize that life goes fast, it's hard to make the good things last.

    F                                         Dm
You realize that somin' doesn't go down, it's just an illusion

F              Fm             Am
caused by the world, spinnin' round.



[Verse III]

  4/4............
e|-------------------------|---------|
B|-------------------------|---------|
G|-------------------------|---------|
D|-------------------------|---------|
A|-5-5/7-5-5/7-5-5/7-5-5/7-|-2-5-2-5-|
E|-------------------------|---------|


F     C      Em         Am             G         F
Do you realize that you have the most, beautiful face? 

       C
Do you realize?


************************************

| /   slide up
| \   slide down

************************************

            
            
Suggest correction
Creating personal tab
Creating personal tab
You can edit any tab online and save it as your Personal.

You can edit, replace or remove any tab part or add personal notes – all changes will be seen only by you.

Personal tabs can be accessed anytime from any device, even offline.
Learn more »
Give kudos to tab author, rate the tab!
1 2 3 4 5
comments
print report bad tab
2 comments total.
0 reply
mastodonspectre 10 Nov 05, 2015 02:54 PM

Thanks man

0 reply
gtrmstr11 10 Nov 05, 2015 02:54 PM

Ty for the tab

guest
You may want to rate the tab now too:
select rating
Wanna post a correction for this tab? Suggest correction