Oops, an error
Loading. Please wait.

Free Radicals tab

version 1
version 1

Whole song

9,375 views 9 this week
2 commentsread comments
1 2 3 4 5
x 7
add to favorites
×
Save as Personal and add changes to this tab that will be seen only by you. Learn more ›
×
You can save this tab as Personal to edit and correct it or add notes. All changes will be seen only by you. Learn more »
launch autoscroll
font size
0
reset
how to read this tab
guitar tuner
edit
Autoscroll
slow
fast
+/-
esc
set tempo
stop
Difficulty
intermediate
I-----------------------------------------------------------------------|I
I-------------The Flaming Lips - Free Radicals--------------------------|I
I------------------------from "At War With the Mystics"-----------------|I
I-----------------------------------------------------------------------|I

by Duncan from C-Town - I just saw the Lips the other day (@ Waka) and they played this.
Crank up yer distortion or fuzz to play.  I was too amazed by this crazy ass song to
Steve, but this is how it sounds.  It was the best show I've ever seen, fo reals. my 
is free2rhymein03@yahoo.com

----------------------------------------------------------------|
------------------------x-x-xx-x--------------------------------|
------------------------x-x-xx-x--------------------------------|
-9-9------------7-7-----x-x-xx-x-2-2---------------------2-2----|
-9-9------------7-7--------------2-2-----7p5-----5h7-----2-2----|
-7-7------------5-5--------------0-0--------7p6p5--------0-0----|

-------------|
-------------|
-------------|
-------------|
-7p5-----5h7-|
----7p6p5----|    That was the verses, and the chorus is:

--(7)------(5)---------(0)-------------------|
--(7)------(5)---------(0)-------------------|
--(8)------(6)---------(1)-------------------|
---9--------7-----------2------2-2-----------|
---9--------7-----------2------2-2-----------|
---7--------5-----------0------0-0-----------|
 think...  not...     fact...      fanatical.

The notes in parenthesis are if you wanna round out your sound or if you don't have a
 Just strum away.
Suggest correction
Creating personal tab
Creating personal tab
You can edit any tab online and save it as your Personal.

You can edit, replace or remove any tab part or add personal notes – all changes will be seen only by you.

Personal tabs can be accessed anytime from any device, even offline.
Learn more »
comments
print report bad tab
2 comments total.
+1 reply
El Gigante 72 Mar 10, 2009 04:04 PM

Nice job, simple enough song but some of us are lazy. Thanks for the tab.

+1 reply
LukaR 134 Jun 12, 2012 10:41 AM

I'd say the riff actually goes like this:

-----------------------------------|
-----------------------------------|
-----------------------------------|
-2-2----------9p7------------------|
-2-2--------------9-7------5-------|
-0-0-----------------5h6h7---------|

It's not easy to get the rhythm but you get it after a few tries.

guest
Wanna post a correction for this tab? Suggest correction