Oops, an error
Loading. Please wait.

In The Morning Of The Magicians tab

version 3
version 3

Whole song

328 views 1 this week
no commentswrite comment
1 2 3 4 5
3 more votes to show rating
add to favorites
×
Save as Personal and add changes to this tab that will be seen only by you. Learn more ›
×
You can save this tab as Personal to edit and correct it or add notes. All changes will be seen only by you. Learn more »
launch autoscroll
font size
0
reset
how to read this tab
guitar tuner
edit
Autoscroll
slow
fast
+/-
esc
set tempo
stop
Author
Difficulty
intermediate
-------------------------------------------------------------------------------
                 In The Morning Of The Magicians - The Flaming Lips
-------------------------------------------------------------------------------
Tabbed by: JP Fowler
E-mail: starmut92@gmail.com
Tuning: EADGBe (Standard)
Album: Yoshimi Battles the Pink Robots

Chord chart for song:

  C    F    G    Dm
e|0----1----3----1--|
B|1----1----0----3--|
G|0----2----0----2--|
D|2----3----0----0--|
A|3----x----2----x--|
E|x----x----3----x--|


[Intro/Chorus]


             Let ring...........
  4/4.............
e|-------3-5-|-8-7--8-7----|-8-7--8-7----|
B|-3-5-6-----|----------10-|----------10-|
G|-----------|-------------|-------------|
D|-----------|-------------|-------------|
A|-----------|-------------|-------------|
E|-----------|-------------|-------------|


[Verse I]


C                     G                     C        
In the morning I'd awake and I couldn't remember

                          G                     C      
what is love and what is hate, the calculations error.


  4/4.............
e|-----8-12-10-8------------|
B|---8-----------10-8--10-8-|
G|-5------------------------|  
D|--------------------------|  
A|--------------------------|  
E|--------------------------|


C     F          Dm                         G
Oh oh oh oh oh.... what is love and what is hate

    C                  Dm                  G
and why does it matter?  Is to love just a waste

    C                  Dm         G         C
and how can it matter?   Oh oh oh oh oh....

Dm       G
Oh oh oh oh oh....


[Chorus II]


-Guitar Only-

             Let ring...........

   G       F  Am G      F   Am G      F
  4/4.............
e|-------3-5-|-8-7--8-7----|-8-7--8-7----|
B|-3-5-6-----|----------10-|----------10-|
G|-----------|-------------|-------------|
D|-----------|-------------|-------------|
A|-----------|-------------|-------------|
E|-----------|-------------|-------------|


[Verse II]


C                    G                  C
As the dawn began to break, I had to surrender

                           G                    C
the universe will have its way, too powerful to master.

      F         Dm                          G
Oh oh oh oh oh.... what is love and what is hate?  

    C                  Dm                  G
And why does it matter?  Is to love just a waste

    C                  Dm          G
and how can it matter?   Oh oh oh oh oh....


[Chorus III/Outro]


-Guitar Only-

    Let ring.....................................................

   G       F  Am G      F   Am G      F   Am G      F   Am G       F
  4/4.............
e|-------3-5-|-(5)/8-7--8-7----|-8-7--8-7----|-8-7--8-7----|-8-7--8-10-13-|
B|-3-5-6-----|--------------10-|----------10-|----------10-|--------------|
G|-----------|-----------------|-------------|-------------|--------------|
D|-----------|-----------------|-------------|-------------|--------------|
A|-----------|-----------------|-------------|-------------|--------------|
E|-----------|-----------------|-------------|-------------|--------------|

***********************************

| ( ) Ghost note
| / Slide-up

***********************************

            
            
Suggest correction
Creating personal tab
Creating personal tab
You can edit any tab online and save it as your Personal.

You can edit, replace or remove any tab part or add personal notes – all changes will be seen only by you.

Personal tabs can be accessed anytime from any device, even offline.
Learn more »
Give kudos to tab author, rate the tab!
1 2 3 4 5
comments
print report bad tab
guest
You may want to rate the tab now too:
select rating
Wanna post a correction for this tab? Suggest correction