Oops, an error
Loading. Please wait.

It Overtakes Me tab

325 views 1 this week
no commentswrite comment
1 2 3 4 5
2 more votes to show rating
add to favorites
×
Save as Personal and add changes to this tab that will be seen only by you. Learn more ›
×
You can save this tab as Personal to edit and correct it or add notes. All changes will be seen only by you. Learn more »
launch autoscroll
font size
0
reset
how to read this tab
guitar tuner
edit
Autoscroll
slow
fast
+/-
esc
set tempo
stop
Author
Difficulty
So the beginning is simple enough:

E

It overtakes me, It overtakes me, It overtakes me, Blablablabla

E                    C#m               A               E

It overtakes me, It master slaves me, it overtakes me, blablablabla

Repeats a few times then this

Cm                              G#m

You know that it isn't re - a - al....

Cm                              G#m

You know that it isn't re - a - al....

And it switches between these two a couple times and there's a short bridge of

F#m B Cm

F#m Cm B

F#m B Cm

F#m Cm B

Then back to the beginning, switching between the first two parts, then they fade out into:

E                          A

Aa-a-a-a-ah A-a-a-a-a-a-a-ahhh

         E                      A

And I'm there looking up at the sky

         E                      A

And I'm scared thinking bout the way that I

             E                 A

I don't understand anything at all
        
               E                              A

And how it all affects me and how I'm just so small...

Then this crazy part (the whole reason I wanted to learn this song)

C#m

-9-----------9-----------9-----------9-----------9-----------9-----------9-----------9-----------
--------9-----------9-----------9-----------9-----------9-----------9-----------9-----------9----
------9-----------9-----------9-----------9-----------9-----------9-----------9-----------9------
---11----------11----------11----------11----------11----------11----------11----------11--------
----------11----------11----------11----------11----------11----------11----------11----------11-
-9-----------9-----------9-----------9-----------9-----------9-----------9-----------9-----------

G#m7

-11----------11----------11----------11----------11----------11----------11----------11----------
---------9-----------9-----------9-----------9-----------9-----------9-----------9-----------9---
------11----------11----------11----------11----------11----------11----------11----------11-----
----9------9----9------9----9------9----9------9----9------9----9------9----9------9----9------9-
-11----------11----------11----------11----------11----------11----------11----------11----------
-------------------------------------------------------------------------------------------------

C#m

-9-----------9-----------9-----------9-----------9-----------9-----------9-----------9-----------
--------9-----------9-----------9-----------9-----------9-----------9-----------9-----------9----
------9-----------9-----------9-----------9-----------9-----------9-----------9-----------9------
---11----------11----------11----------11----------11----------11----------11----------11--------
----------11----------11----------11----------11----------11----------11----------11----------11-
-9-----------9-----------9-----------9-----------9-----------9-----------9-----------9-----------

C#

-9-----------9-----------9-----------9-----------9-----------9-----------9-----------9-----------
--------9-----------9-----------9-----------9-----------9-----------9-----------9-----------9----
------10----------10----------10----------10----------10----------10----------10----------10-----
---11----------11----------11----------11----------11----------11----------11----------11--------
----------11----------11----------11----------11----------11----------11----------11----------11-
-9-----------9-----------9-----------9-----------9-----------9-----------9-----------9-----------

F#m7

-9-----------9-----------9-----------9-----------9-----------9-----------9-----------9-----------
-------10----------10----------10----------10----------10----------10----------10----------10----
------9-----------9-----------9-----------9-----------9-----------9-----------9-----------9------
---11----------11----------11----------11----------11----------11----------11----------11--------
-----------9-----------9-----------9-----------9-----------9-----------9-----------9-----------9-
-9-----------9-----------9-----------9-----------9-----------9-----------9-----------9-----------

C#m

-9-----------9-----------9-----------9-----------9-----------9-----------9-----------9-----------
--------9-----------9-----------9-----------9-----------9-----------9-----------9-----------9----
------9-----------9-----------9-----------9-----------9-----------9-----------9-----------9------
---11----------11----------11----------11----------11----------11----------11----------11--------
----------11----------11----------11----------11----------11----------11----------11----------11-
-9-----------9-----------9-----------9-----------9-----------9-----------9-----------9-----------

EM7

-----11--7------------
-9---9---9------------
-9---9---8------------
-9---9---9------------
----------------------
----------------------

Soooo pretty. 

And ultimate guitar, last time I posted here you deleted my flawless Nina Simone tab because you "already 
had it", but you already had one that was completely wrong.

Also folks, if the tab isn't right, don't upload it! I'm tired of finding phoney tabs...

            
            
Suggest correction
Creating personal tab
Creating personal tab
You can edit any tab online and save it as your Personal.

You can edit, replace or remove any tab part or add personal notes – all changes will be seen only by you.

Personal tabs can be accessed anytime from any device, even offline.
Learn more »
Give kudos to tab author, rate the tab!
1 2 3 4 5
comments
print report bad tab
guest
You may want to rate the tab now too:
select rating
Wanna post a correction for this tab? Suggest correction